Becoming The Archetype – One Man Parade tab

----------------------------------------------------------------------------
                          Becoming The Archetype
                             One Man Parade                 Drop C (CGCFAD)
----------------------------------------------------------------------------



|-----------------|-----------------|-----------------|---------------||-----------------|-----------------|-----------------|---------------||-----------------|-----------------|-----------------|---------------||-----------------|-----------------|-----------------|---------------||---5-6---8-6-5-6-|---6-8---9-8-6-8-|---5-8---8-6-5-6-|---5---3-5---1-||-0-----0---------|-0-----0---------|-0-----0---------|-0-5-0-3-5-0-1-|
|-----------------|-----------------|-----------------|------------------||-----------------|-----------------|-----------------|------------------||-----------------|-----------------|-----------------|------------------||-----------------|-----------------|-----------------|------------------||---5-6---8-6-5-6-|---6-8---9-8-6-8-|---5-8---8-6-5-6-|---8-10---7-8---5-||-0-----0---------|-0-----0---------|-0-----0---------|-0------0-----0---|
|-----------------|-----------------|-----------------|-----------------||-----------------|-----------------|-----------------|-----------------||-----------------|-----------------|-----------------|-----------------||-0-0-0-0-0-0-0-0-|-0-0-0-0-0-0-0-0-|-0-0-0-0-0-0-0-0-|-0-5-6---3-5---1-||-0-0-0-0-0-0-0-0-|-0-0-0-0-0-0-0-0-|-0-0-0-0-0-0-0-0-|-0---------------||-0-0-0-0-0-0-0-0-|-0-0-0-0-0-0-0-0-|-0-0-0-0-0-0-0-0-|-0-----0-----0---|
|-----------------|-----------------|-----------------|-----------------||-----------------|-----------------|-----------------|-----------------||-----------------|-----------------|-----------------|-----------------||-0-0-0-0-0-0-0-0-|-0-0-0-0-0-0-0-0-|-0-0-0-0-0-0-0-0-|-0-5-6---3-5---0-||-0-0-0-0-0-0-0-0-|-0-0-0-0-0-0-0-0-|-0-0-0-0-0-0-0-0-|-0---------------||-0-0-0-0-0-0-0-0-|-0-0-0-0-0-0-0-0-|-0-0-0-0-0-0-0-0-|-0-----0-----0---|
|----------------|---------------|---------------|---------------||----------------|---------------|---------------|---------------||----------------|---------------|---------------|---------------||-7------7-8-----|-7-----7-8-----|-7-----7-8-----|-7-----7-8-----||----5-5-----5-5-|---5-5-----6-6-|---6-6-----6-6-|---6-6-----5-5-||----------------|---------------|---------------|---------------|
|----------------|----------------|----------------|------------------||----------------|----------------|----------------|------------------||-9-----9-10-----|-9-----9-10-----|-9-----9-10-----|-9-----9-10-------||---7-7------7-7-|---7-7------8-8-|---8-8------8-8-|---8-8------10-10-||----------------|----------------|----------------|------------------||----------------|----------------|----------------|------------------|
|--------------------|---------------------|---------------------||--------------------|---------------------|---------------------||-9-------9-10-------|-9-------9-10--------|-9-------9-10--------||---10-10------10-10-|---10-10-------11-11-|---11-11-------11-11-||--------------------|---------------------|---------------------||--------------------|---------------------|---------------------|
......CONTINUED|----------------------||----------------------||-9-------12-------10\-||---11-11----11-11-----| 2X |----------------------||----------------------|
|-------------------------|-------------------------|----------------------||-------------------------|-------------------------|----------------------||-------2-3-5-------2-3-5-|-------2-3-5-------2-3-5-|------0-2-3------0-2-3||-2-3-5-------2-3-5-------|-2-3-5-------2-3-5-------|-0-2-3------0-2-3-----||-------------------------|-------------------------|----------------------||-------------------------|-------------------------|----------------------|
|----------------------||----------------------||------0-2-3------0-2-3||-0-2-3------0-2-3-----||----------------------||----------------------|
|-------------------------|-------------------------|----------------------||-------------------------|-------------------------|----------------------||-------2-3-5-------2-3-5-|-------2-3-5-------2-3-5-|------0-1-2-----0-1-2-||-2-3-5-------2-3-5-------|-2-3-5-------2-3-5-------|-0-1-2-----0-1-2------||-------------------------|-------------------------|----------------------||-------------------------|-------------------------|----------------------|
|----------------------||----------------------||------0-1-2-----0-1-2-||-0-1-2-----0-1-2------||----------------------||----------------------|
|-------------------------|-------------------------|----------------------||-------------------------|-------------------------|----------------------||-------2-3-5-------2-3-5-|-------2-3-5-------2-3-5-|------0-1-3-----0-1-3-||-2-3-5-------2-3-5-------|-2-3-5-------2-3-5-------|-0-1-3-----0-1-3------||-------------------------|-------------------------|----------------------||-------------------------|-------------------------|----------------------|
|----------------------||----------------------||------0-1-3-----0-1-3-||-0-1-3-----0-1-3------||----------------------||----------------------|
|-------------------------|-------------------------|----------------------||-------------------------|-------------------------|----------------------||-------2-3-5-------2-3-5-|-------2-3-5-------2-3-5-|------0-1-2-----0-1-2-||-2-3-5-------2-3-5-------|-2-3-5-------2-3-5-------|-0-1-2-----0-1-2------||-------------------------|-------------------------|----------------------||-------------------------|-------------------------|----------------------|
|----------------------||----------------------||------0-1-2-----0-1-2-||-0-1-2-----0-1-2------||----------------------||----------------------|
|------------------------------------|-------------------------------||-9---------8---------7--------6-----|-----7-------6-----7---------6-||---11--------10--------9--------8---|---1-------3---------6-----3---||------11--------10-------11-------8-|-6-------5-------6-------5-----||------------------------------------|-------------------------------||------------------------------------|-------------------------------|
|------------------------------------------||------12---13/16------------14---15/18----||----9------------15------11------------17-||-11-------------------13------------------||------------------------------------------||------------------------------------------|
|------------------------------------------|----------||------12---13/16------------14---12/15----|-9--------||----9------------15------11------------15-|---11-----||-11-------------------13------------------|------11--||------------------------------------------|----------||------------------------------------------|----------|
PLAY 3 TIMES|--------------------------------------------------------------------------||--------------------------------------------------------------------------||--------------------------------------------------------------------------||-----5-7-----7-9---10-9-7------------------5-7-----7-9--10-9-7------------||-5-5-----7-7--------------10-8-7-8-10--5-5-----7-7-------------10-8-7-8-10||--------------------------------------------------------------------------|
|-----------------------------------------------------------------||-----------------------------------------------------------------||-----------------------------------------------------------------||-0-0-5/6--0-0-7/8--0-0-0--0-0-0--0-0-5/6--0-0-7/8--0-0-0--0-15\--||-0-0-5/6--0-0-7/8--0-0-0--0-0-0--0-0-5/6--0-0-7/8--0-0-0--0------||-0-0-5/6--0-0-7/8--0-0-0--0-0-0--0-0-5/6--0-0-7/8--0-0-0--0------|
|--------------------------------------------------------------------------||--------------------------------------------------------------------------||--------------------------------------------------------------------------||-----5-7-----7-9---10-9-7------------------5-7-----7-9--10-9-7------------||-5-5-----7-7--------------10-8-7-8-10--5-5-----7-7-------------10-8-7-8-10||--------------------------------------------------------------------------|
|----------------------------------------------------------------||----------------------------------------------------------------||----------------------------------------------------------------||-0-7-8-0-5-7-0-3-0-5-6-0-3-5-0-1--------------------------------||---------------------------------0-5-6-0-3-5-0-1--0-3-5-0-2-3-0-||---------------------------------0-5-6-0-3-5-0-1--0-3-5-0-2-3-0-|
|-----------------------------------------------------------||-----------------------------------------------------------||-----------------------------------------------------------||-0-3---6-5-3-5--0-3---1---4--0-3---6-5-3-5-5--0-0-5-3-5-6--||-0-3---6-5-3-5--0-3---1------0-3---6-5-3-5-5--0-0-5-3-5-6--||-0-3-0-6-5-3-5--0-3-0-1-0----0-3-0-6-5-3-5-5--0-0-5-3-5-6--|
|-------------------------------------------||-------------------------------------------||-------------------------------------------||-1-0-0---0-3-5-3-5-6---1-0-0---0-3-5-3-5-6-||-1-0-0---0-3-5-3-5-6---1-0-0---0-3-5-3-5-6-||-1-0-0---0-3-5-3-5-6---1-0-0---0-3-5-3-5-6-|
|------7---------------------7--------------||--------7---------------------7------------||-------------------------------------------||-1-0-0---0-3-5-3-5-6---1-0-0---0-3-5-3-5-6-||-1-0-0---0-3-5-3-5-6---1-0-0---0-3-5-3-5-6-||-1-0-0---0-3-5-3-5-6---1-0-0---0-3-5-3-5-6-|
|---------------------------------------||---------------------------------------||---------------------------------------||-0--0---0--0---0--0---0----------------||-0--0---0--0---0--0---0-8-10---7-8---5-||-0--0---0--0---0--0---0------0-----0---|
|-----------------|-----------------|-----------------|------------------||-----------------|-----------------|-----------------|------------------||-----------------|-----------------|-----------------|------------------||-----------------|-----------------|-----------------|------------------||---5-6---8-6-5-6-|---6-8---9-8-6-8-|---5-8---8-6-5-6-|---8-10---7-8---5-||-0-----0---------|-0-----0---------|-0-----0---------|-0------0-----0---|
|-------------------------------------------------------------------------||-------------------------------------------------------------------------||---7-8---10-8-7-8---8-10---11-10-8-10---7-8--10-8-7-8----10-12--9-10---7-||-0-----0----------0------0------------0-----0----------0-------0-----0---||-------------------------------------------------------------------------||-------------------------------------------------------------------------|
|----------------|---------------|---------------|---------------||----------------|---------------|---------------|---------------||----------------|---------------|---------------|---------------||-7------7-8-----|-7-----7-8-----|-7-----7-8-----|-7-----7-8-----||----5-5-----5-5-|---5-5-----6-6-|---6-6-----6-6-|---6-6-----5-5-||----------------|---------------|---------------|---------------|
|----------------|---------------|---------------|---------------||----------------|---------------|---------------|---------------||----------------|---------------|---------------|---------------||-7------7-8-----|-7-----7-8-----|-7-----7-8-----|-7-----7-8-----||----5-5-----5-5-|---5-5-----6-6-|---6-6-----6-6-|---6-6-----8-8-||----------------|---------------|---------------|---------------|
|------------------------------------------------------------||------------------------------------------------------------||------------------------------------------------------------||-7-----7-8-----7-----7-8-----7-----7-8-----7-----10-----8\--||---8-8-----8-8---8-8-----9-9---9-9-----9-9---9-9----9-9-----||------------------------------------------------------------|
|-12-11-10----------12-11-10----------12-11-10----------12-11-10----------||----------13-12-11----------13-12-11----------13-12-11----------13-12-11-||-------------------------------------------------------------------------||-------------------------------------------------------------------------||-------------------------------------------------------------------------||-------------------------------------------------------------------------|
| / slide up | \ slide down
Please rate this tab:
x1.0