Before Their Eyes - Crawling Towards Forgiveness tab

This is a great new band, well pretty new. But its frustrating to see that there
arent very many tabs for Before Their Eyes, especially since there best song is
tabbed incorrectly ( no offense to the dude that tabbed it) so heres what i
believe is correct or atleast not as far off as the other tab.

This is my first, posted, tab.
I didnt put the palm mutes in, cause This took longer than i thought.

-MRG
email- milkngravey@yahoo.com

Basically in order.

Intro-Gtr. 1Part 1|----------------------------------------------------------||----------------------------------------------------------||-----------9/10-1010-1010------------9/10-1010-1010-------||--0--00-00-x/x---x-x--x-x--0--00-00--x/x---x-x--x-x-------||--0--00-00-7/8---8-8--8-8--0--00-00--7/8---8-8--8-8-------||--0--00-00-----------------0--00-00-----------------------|
Part 2|----------------------------------------------------------||----------------------------------------------------------||-----------10/12-1212-1212-----------7/9--9-9--9-9--------||--8--88-88-x/x---x-x--x-x--7--00-00--x/x--x-x--x-x--------||--8--88-88-8/10-1010-1010-7--00-00-5/7--7-7--7-7----------||--8--88-88-----------------7--00-00-----------------------|
Gtr. 2- played over part 2|---------------------------------------------------------||---------------------------------------------------------||--9-10-12-10-9-10-9-7-9-7--9-10-12-10-9-10-9-7-9-7-------||---------------------------------------------------------||---------------------------------------------------------||---------------------------------------------------------|
|-------------------------------------------------------||-------------------------------------------------------||-9-10-12-10-9-10-9-7-9-7--9-10-12-10-12-14-12-10-12-10-||-------------------------------------------------------||-------------------------------------------------------||-------------------------------------------------------|
Pre-verse- Gtr. 1 or 2, doesnt matter from here on|-----------0------------------------------------------------||-----------0-[let ring]--------------------------13---------||-----------0----------------------------------15b17---------||-0--------------------------(0)------------0----------------||-0-[let ring]------------------(0)------------0-------------||-0--------------------------(0)------------0----------------|Lightly touch all three strings at- ( )
Verse X2|-----------------------------------------------------------------------------||-----------------------------------------------------------------------------||-----------------------------------------------------------------------------||-0---------7---- ---0---------7--------8---------8-7-------9--------7--10----||-0-000-00---7-7h8--0-000-00---7-7h8--8-888-88------10p8 -9-999-99--8---------||-0-000-00----------0-000-00-----------8-888-88------------9-999-99-----------|
end verse on... transition|--------------------|----------------||--------------------|----------------||--------------------|----------------||---0----------------|----8-8-8-------||---0-[let ring]--------|----8-8-8----||---0----------------|----8-8-8-------|
Gtr. 1Part 1|----------------------------------------------------------||----------------------------------------------------------||-----------9/10-1010-1010------------9/10-1010-1010-------||--0--00-00-x/x---x-x--x-x--0--00-00--x/x---x-x--x-x-------||--0--00-00-7/8---8-8--8-8--0--00-00--7/8---8-8--8-8-------||--0--00-00-----------------0--00-00-----------------------|
Part 2|---------------------------------------------------------||---------------------------------------------------------||-----------10/12-1212-1212----------7/9--9-9--9-9--------||--8--88-88-x/x---x-x--x-x--7--77-77-x/x--x-x--x-x--------||--8--88-88-8/10-1010-1010-7--77-77-5/7--7-7--7-7---------||--8--88-88-----------------7--77-77----------------------|
Gtr. 2- played over part 2|---------------------------------------------------------||---------------------------------------------------------||--9-10-12-10-9-10-9-7-9-7--9-10-12-10-9-10-9-7-9-7-------||---------------------------------------------------------||---------------------------------------------------------||---------------------------------------------------------|
|-------------------------------------------------------||-------------------------------------------------------||-9-10-12-10-9-10-9-7-9-7--9-10-12-10-12-14-12-10-12-10-||-------------------------------------------------------||-------------------------------------------------------||-------------------------------------------------------|
Bridge-1Gtr. 1|----------------------------------------||----------------------------------------||----------------------------------------||-0---------0----------------------------||-0-[let ring]-0-000-00-0h15p0h14p0h12---||-0---------0-000-00---------------------|
|-----------------------------------------||-----------------------------------------||-----------------------------------------||-0---------------------------------14 ---||-0-000-00-0h15p0h14p0h12p0h14p12---------||-0-000-00--------------------------------|
|-----------------||-----------------||-----------------|keep repeating until the transition|-----------------||-0h15p0h14p0h12-||-----------------|
Gtr. 2 played over guitar 1|-----------------------------------------||-----------------------------------------||-----------------------------------------||-0---------0-----------------------------||-0-[let ring]-0-000-00-------------------||-0---------0-000-00----------------------|
|------------------------------------------||------------------------------------------||------------12-10-9h10p- 9/12\10/14-------||-0----------------------- x/x-\x-/x-------||-0-000-00--------------- 7/10\8-/12-------||-0-000-00---------------------------------|
|-------------------------------------||-------------------------------------||-9/12\10/14-/17\15\14\12-------------||-x/x-\x-/x--/x-\x- \x-\x-------------||-7/10\8-/12-/15\13\12\10-------------||-------------------------------------|
end verse on... transition|--------------------|----------------||--------------------|----------------||--------------------|----------------||---0----------------|----8-8-8-------||---0-[let ring]--------|----8-8-8----||---0----------------|----8-8-8-------|
CHORUS
Gtr. 1Part 1|----------------------------------------------------------||----------------------------------------------------------||-----------101010101010------------101010101010-----------||--0--00-00-8-8-8-8-8-8----0--00-00-8-8-8-8-8-8------------||--0--00-00-8-8-8-8-8-8----0--00-00-8-8-8-8-8-8------------||--0--00-00-8-8-8-8-8-8----0--00-00-8-8-8-8-8-8------------|
Part 2 |----repeat----------------------------------| 2x|----------------------------------------------------------||----------------------------------------------------------||-----------10/12-10- 9-9-9------------7/9-10-121212-------||----------- 8/10--8--7-7-7---------- --5/7-8 -101010------||--8--88-88-8/10--8--7-7-7--7--77-77--5/7-8--101010--------||--8--88-88-8/10--8--7-7-7--7--77-77--5/7-8--101010--------|
Part 1-Gtr. 2 play the second time over guitar 1|----------------------------------------------------------||----------------------------------------------------------||-----------9/1414-1414-------------9/1212-1212------------||--0--00-00-x/x-x--x-x- --0--00-00--x/ x-x--x-x------------||--0--00-00-7/1212-1212--0--00-00--7/1010-1010-------------||--0--00-00---------------0--00-00-------------------------|
Part 2|----------------------------------------------------------||----------------------------------------------------------||-----------10/12-10- 9-9-9------------7/9-10-121212-------||----------- 8/10--8--7-7-7---------- --5/7-8 -101010------||--8--88-88-8/10--8--7-7-7--7--77-77--5/7-8 -101010--------||--8--88-88-8/10--8--7-7-7--7--77-77--5/7-8 -101010--------|
Transition-Gtr. 1|-------------------------||-------------------------||-------------------------||---0---------------------||---0-[let ring]----------||---0---------------------|
Bridge-2
|--------------------------------------------||--------------------------------------------||--------------------------------------------||--------------------------------------------||--------------------------------------------||0h8\7\6\5\4\3\2\1\0-000-000-000-000-000 ----|
|---------------------------------------------------------------||---------------------------------------------------------------||---------------------------------------------------------------||-0h5p0h7p0h8p0h7p0h5p0h3-00-0h5p0h7p0h8p0h7p0h5p0h3*~00--------||---------------------------00----------------------------00----||---------------------------00----------------------------00----|
|---------------------------------------------------------------||---------------------------------------------------------------||---------------------------------------------------------------||-0h5p0h7p0h8p0h7p0h5p0h3-00-0h5p0h7p0h8p0h7p0h5p0h3*~~~--------||---------------------------00----------------------------------||---------------------------00----------------------------------|
Chorus final
Gtr. 1|-------------------|2x|-------------------||-------------------||-0---------8----10-||-0---------8----10-||-0---------8----10-|
Outro
Gtr. 1|--------------------------------------------------||--------------------------------------------------||-listen to the song to know how long to go for----||--------------------------------------------------||--------------------------------------------------||-000-000-000-000-000-000-000-000-000-000----------|
Gtr. 2|------------|-----------||------------|-----------||------------|-----------||------------|-----------||-5/10-5/10- |-----------||------------|-10\5-10\5 |
Then some deal with the yeah this is taking too long, its like only 3 secs at the end so you figure out wat you wanna do. Thanks for trusting this, have a good day, i doubt there will be more cause this took longer than i thought.
Tap to rate this tab
 
# A B C D E F G H I J K L M N O P Q R S T U V W X Y Z