Behemoth – At The Left Hand Ov God tab

Behemoth
At The Left Hand Ov God
Tabbed by : \m/Gaz

Guitar 1 [Nergal] = (BF#BEG#C#) (top guitar line)
Guitar 2 [Seth]   = (BF#BEG#C#) (second one down)
Guitar 3 [Nergal] = (BF#BEG#C#) (Third one down)
(Guitar 3 only used on some occasions)


Intro (Guitar 1 clean)


|--5---5\4-4---5---5\4-4---5---5\4-4---5---5\4-4--------------9--||--3---3\2-2---3---3\2-2---3---3\2-2---3---3\2-2------------7----||--2---2\1-1---2---2\1-1---2---2\1-1---2---2\1-1----------6------||--0---0---0---0---0---0---0---0---0---0---0---0--------4--------||-----------------------------------------------------4----------||---------------------------------------------------4------------|
| || ||--5---5p4-4---5---5p4-4---5---5p4-4---5---5p4-4--2--------------||----------------------------------------------------------------||----------------------------------------------------------------||----------------------------------------------------------------||----------------------------------------------------------------||----------------------------------------------------------------|
| || ||--------------------------------------------------4\2-----------||----------------------------------------------------------------||----------------------------------------------------------------||----------------------------------------------------------------||----------------------------------------------------------------||----------------------------------------------------------------|
|--5---5\4-4---5---5\4-4---5---5\4-4---5---5\4-4--------------9--||--3---3\2-2---3---3\2-2---3---3\2-2---3---3\2-2------------7----||--2---2\1-1---2---2\1-1---2---2\1-1---2---2\1-1----------6------||--0---0---0---0---0---0---0---0---0---0---0---0--------4--------||-----------------------------------------------------4----------||---------------------------------------------------4------------|
| || ||--5---5p4-4---5---5p4-4---5---5p4-4---5---5p4-4-/9--------------||----------------------------------------------------------------||----------------------------------------------------------------||----------------------------------------------------------------||----------------------------------------------------------------||----------------------------------------------------------------|
| || ||--------------------------------------------------4\2-----------||----------------------------------------------------------------||----------------------------------------------------------------||----------------------------------------------------------------||----------------------------------------------------------------||----------------------------------------------------------------|
|--5---5\4-4---5---5\4-4---5---5\4-4---5---5\4-4--------------9--||--3---3\2-2---3---3\2-2---3---3\2-2---3---3\2-2------------7----||--2---2\1-1---2---2\1-1---2---2\1-1---2---2\1-1----------6------||--0---0---0---0---0---0---0---0---0---0---0---0--------4--------||-----------------------------------------------------4----------||---------------------------------------------------4------------|
| || ||--5---5p4-4---5---5p4-4---5---5p4-4---5---5p4-4--2--------------||----------------------------------------------------------------||----------------------------------------------------------------||----------------------------------------------------------------||----------------------------------------------------------------||----------------------------------------------------------------|
| || ||--------------------------------------------------4\2-----------||----------------------------------------------------------------||----------------------------------------------------------------||----------------------------------------------------------------||----------------------------------------------------------------||----------------------------------------------------------------|
|--5---5\4-4---5---5\4-4---5---5\4-4---5---5\4-4--------------9--||--3---3\2-2---3---3\2-2---3---3\2-2---3---3\2-2------------7----||--2---2\1-1---2---2\1-1---2---2\1-1---2---2\1-1----------6------||--0---0---0---0---0---0---0---0---0---0---0---0--------4--------||-----------------------------------------------------4----------||---------------------------------------------------4------------|
| || ||--5---5p4-4---5---5p4-4---5---5p4-4---5---5p4-4-/9--------------||----------------------------------------------------------------||----------------------------------------------------------------||----------------------------------------------------------------||----------------------------------------------------------------||----------------------------------------------------------------|
| || ||--------------------------------------------------4/9-----------||----------------------------------------------------------------||----------------------------------------------------------------||----------------------------------------------------------------||----------------------------------------------------------------||----------------------------------------------------------------|
|------9------------------------------||--------7-6-7-----9-10-9h10p9-6--7---||----6-----------6--------------------||--4-----------4----------------------||-------------------------------------||-------------------------------------|
| || ||-------------------------------------||-------------------------------------||------------------------------10-11--||-------------------------------------||-------------------------------------||-------------------------------------|
Verse (With Distortion)
|---------------------------------------------------------||---------------------------------------------------------||---------------------------------------------------------||--6--6-7-6-6--6-6-6-7/10-10--6--6-7-6-6------------------||--4--4-5-4-4--4-4-4-5/8--8---4--4-5-4-4--4-5-2--4-0-<3>--||-----------------------------------------"-"-"--"-"------|
| || ||---------------------------------------------------------||---------------------------------------------------------||---------------------------------------------------------||--6--6-7-6-6--6-6-6-7/10-10--6--6-7-6-6------------------||--4--4-5-4-4--4-4-4-5/8--8---4--4-5-4-4--4-5-2--4-0------||-----------------------------------------"-"-"--"-"------|
|---------------------------------------------------------||---------------------------------------------------------||---------------------------------------------------------||--6--6-7-6-6--6-6-6-7/10-10--6--6-7-6-6------------------||--4--4-5-4-4--4-4-4-5/8--8---4--4-5-4-4--4-5-2--4-0-<3>--||-----------------------------------------"-"-"--"-"------|
| || ||---------------------------------------------------------||---------------------------------------------------------||---------------------------------------------------------||--6--6-7-6-6--6-6-6-7/10-10--6--6-7-6-6------------------||--4--4-5-4-4--4-4-4-5/8--8---4--4-5-4-4--4-5-2--4-0------||-----------------------------------------"-"-"--"-"------|
|---------------------------------------------------------||---------------------------------------------------------||---------------------------------------------------------||--6--6-7-6-6--6-6-6-7/10-10--6--6-7-6-6------------------||--4--4-5-4-4--4-4-4-5/8--8---4--4-5-4-4--4-5-2--4-0-<3>--||-----------------------------------------"-"-"--"-"------|
| || ||---------------------------------------------------------||---------------------------------------------------------||---------------------------------------------------------||--6--6-7-6-6--6-6-6-7/10-10--6--6-7-6-6------------------||--4--4-5-4-4--4-4-4-5/8--8---4--4-5-4-4--4-5-2--4-0------||-----------------------------------------"-"-"--"-"------|
|---------------------------------------------------------||---------------------------------------------------------||---------------------------------------------------------||--6--6-7-6-6--6-6-6-7/10-10--6--6-7-6-6------------------||--4--4-5-4-4--4-4-4-5/8--8---4--4-5-4-4--4-5-2--4-0-<3>--||-----------------------------------------"-"-"--"-"------|
| || ||---------------------------------------------------------||---------------------------------------------------------||---------------------------------------------------------||--6--6-7-6-6--6-6-6-7/10-10--6--6-7-6-6------------------||--4--4-5-4-4--4-4-4-5/8--8---4--4-5-4-4--4-5-2--4-0------||-----------------------------------------"-"-"--"-"------|
Chorus
|--------------------------------------------------------------||--------------------------------------------------------------||--------------------------------------------------------------||--11---11---11-11\9-9\7-7---12--11\9--11/12-11----------------||--------------------------------------------------------------||--11---11---11-11\9-9\7-7---12--11\9--11/12-11----------------|
| || ||--------------------------------------------------------------||--------------------------------------------------------------||--6-----------------------------------------------------------||--------------------------------------------------------------||--4-------------------------------------------4-5-2--4-0-<3>--||----------------------------------------------"-"-"--"-"------|
|--------------------------------------------------------------||--------------------------------------------------------------||--------------------------------------------------------------||--11---11---11-11\9-9\7-7---12--11\9--11/12-11----------------||--------------------------------------------------------------||--11---11---11-11\9-9\7-7---12--11\9--11/12-11----------------|
| || ||--------------------------------------------------------------||--------------------------------------------------------------||--6-----------------------------------------------------------||--------------------------------------------------------------||--4-------------------------------------------4-5-2--4-0-<3>--||----------------------------------------------"-"-"--"-"------|
Verse
|---------------------------------------------------------||---------------------------------------------------------||---------------------------------------------------------||--6--6-7-6-6--6-6-6-7/10-10--6--6-7-6-6------------------||--4--4-5-4-4--4-4-4-5/8--8---4--4-5-4-4--4-5-2--4-0-<3>--||-----------------------------------------"-"-"--"-"------|
| || ||---------------------------------------------------------||---------------------------------------------------------||---------------------------------------------------------||--6--6-7-6-6--6-6-6-7/10-10--6--6-7-6-6------------------||--4--4-5-4-4--4-4-4-5/8--8---4--4-5-4-4--4-5-2--4-0------||-----------------------------------------"-"-"--"-"------|
|---------------------------------------------------------||---------------------------------------------------------||---------------------------------------------------------||--6--6-7-6-6--6-6-6-7/10-10--6--6-7-6-6------------------||--4--4-5-4-4--4-4-4-5/8--8---4--4-5-4-4--4-5-2--4-0-<3>--||-----------------------------------------"-"-"--"-"------|
| || ||---------------------------------------------------------||---------------------------------------------------------||---------------------------------------------------------||--6--6-7-6-6--6-6-6-7/10-10--6--6-7-6-6------------------||--4--4-5-4-4--4-4-4-5/8--8---4--4-5-4-4--4-5-2--4-0------||-----------------------------------------"-"-"--"-"------|
|---------------------------------------------------------||---------------------------------------------------------||---------------------------------------------------------||--6--6-7-6-6--6-6-6-7/10-10--6--6-7-6-6------------------||--4--4-5-4-4--4-4-4-5/8--8---4--4-5-4-4--4-5-2--4-0-<3>--||-----------------------------------------"-"-"--"-"------|
| || ||---------------------------------------------------------||---------------------------------------------------------||---------------------------------------------------------||--6--6-7-6-6--6-6-6-7/10-10--6--6-7-6-6------------------||--4--4-5-4-4--4-4-4-5/8--8---4--4-5-4-4--4-5-2--4-0------||-----------------------------------------"-"-"--"-"------|
|---------------------------------------------------------||---------------------------------------------------------||---------------------------------------------------------||--6--6-7-6-6--6-6-6-7/10-10--6--6-7-6-6------------------||--4--4-5-4-4--4-4-4-5/8--8---4--4-5-4-4--4-5-2--4-0-<3>--||-----------------------------------------"-"-"--"-"------|
| || ||---------------------------------------------------------||---------------------------------------------------------||---------------------------------------------------------||--6--6-7-6-6--6-6-6-7/10-10--6--6-7-6-6------------------||--4--4-5-4-4--4-4-4-5/8--8---4--4-5-4-4--4-5-2--4-0------||-----------------------------------------"-"-"--"-"------|
Chorus
|--------------------------------------------------------------||--------------------------------------------------------------||--------------------------------------------------------------||--11---11---11-11\9-9\7-7---12--11\9--11/12-11----------------||--------------------------------------------------------------||--11---11---11-11\9-9\7-7---12--11\9--11/12-11----------------|
| || ||--------------------------------------------------------------||--------------------------------------------------------------||--6-----------------------------------------------------------||--------------------------------------------------------------||--4-------------------------------------------4-5-2--4-0-<3>--||----------------------------------------------"-"-"--"-"------|
|--------------------------------------------------------------||--------------------------------------------------------------||--------------------------------------------------------------||--11---11---11-11\9-9\7-7---12--11\9--11/12-11----------------||--------------------------------------------------------------||--11---11---11-11\9-9\7-7---12--11\9--11/12-11----------------|
| || ||--------------------------------------------------------------||--------------------------------------------------------------||--6-----------------------------------------------------------||--------------------------------------------------------------||--4-------------------------------------------4-5-2--4-0-<3>--||----------------------------------------------"-"-"--"-"------|
Bridge
|--------------------------------||--------------------------------||--------------------------------||--6--7-4-6--6-6-6-7-4-6-7----6--||--4--5-2-4--4-4-4-5-2-4-5-7--4--||--------------------------7-----|
| pm. . . . . || ||--------------------------------||--------------------------------||--------------------------------||--6--7-4-6--6-6-6-7-4-6-7----6--||--4--5-2-4--4-4-4-5-2-4-5-7--4--||--------------------------7-----| pm. . . . .
|-----------------------------------------------------------||-----------------------------------------------------------||-----------------------------------------------------------||-----------------------------------------------------------||----------5p4-4---------5p4-4---------5p4-----------4h5-5--||--0-0-0-0-------0-0-0-0-------2-3-0-2-----3-2-0-0-0--------|
|pm. . . . . . . . . . . . . . . || ||-----------------------------------------------------------||-----------------------------------------------------------||-----------------------------------------------------------||--------------3-------------3------------------------------||----------5p4-----------5p4-----------5p4-----------4h5-5--||--0-0-0-0-------0-0-0-0-------2-3-0-2-----3-2-0-0-0--------| pm. . . . . . . . . . . . . . .
|-----------------------------------------------------------||-----------------------------------------------------------||-----------------------------------------------------------||-----------------------------------------------------------||----------5p4-4---------5p4-4---------5p4-----------4h5-5--||--0-0-0-0-------0-0-0-0-------2-3-0-2-----3-2-0-0-0--------|
|pm. . . . . . . . . . . . . . . || ||-----------------------------------------------------------||-----------------------------------------------------------||-----------------------------------------------------------||--------------3-------------3------------------------------||----------5p4-----------5p4-----------5p4-----------4h5-5--||--0-0-0-0-------0-0-0-0-------2-3-0-2-----3-2-0-0-0--------| pm. . . . . . . . . . . . . . .
|----------------------------------------------------||----------------------------------------------------||----------------------------------------------------||--3-----------2---0---2h3p2--3-----------2---0---2--||--3-----------2---0---2h3p2--3-----------2---0---2--||--3---3-3-3-3-2---0---2h3p2--3---3-3-3-3-2---0---2--|
|pm . . . . . . . . . || ||----------------------------------------------------||----------------------------------------------------||----------------------------------------------------||--3-----------2---0---2h3p2--3-----------2---0---2--||--3-----------2---0---2h3p2--3-----------2---0---2--||--3---3-3-3-3-2---0---2h3p2--3---3-3-3-3-2---0---2--| pm . . . . . . . . .
|------------------------------------------------||------------------------------------------------||------------------------------------------------||--3-----------2---0---2h3p2--3-----------2---0--||--3-----------2---0---2h3p2--3-----------2---0--||--3---3-3-3-3-2---0---2h3p2--3---3-3-3-3-2---0--|
|pm . . . . . . . . || ||------------------------------------------------||------------------------------------------------||------------------------------------------------||--3-----------2---0---2h3p2--3-----------2---0--||--3-----------2---0---2h3p2--3-----------2---0--||--3---3-3-3-3-2---0---2h3p2--3---3-3-3-3-2---0--| pm . . . . . . . .
|-------------------------------------------||-------------------------------------------||-------------------------------------------||-------------------------------------------||-------------------------------------------||--0-0-0--0-0--0-0-0------------------------|
|pm. . . . . . . . || ||-------------------------------------------||-------------------------------------------||-------------------------------------------||--------------------------------------7\6--||--------------------------------------5\4--||--0-0-0--0-0--0-0-0--0-0--0-0-0--0-0-------| pm. . . . . . . . . . . . . . .
|----------------------------------------------||----------------------------------------------||----------------------------------------------||--------------------------------------7\6/10--||--------------------------------------5\4/8---||--0-0-0---------------------------------------|
|pm. . . || ||----------------------------------------------||----------------------------------------------||----------------------------------------------||--------------------------------------7\6/10--||--------------------------------------5\4/8---||--0-0-0--0-0--0-0-0--0-0--0-0-0--0-0----------| pm. . . . . . . . . . . . . . .
Guitar solo
|-------------------------------------------||-------------------------------------------||-------------------------------------------||-------------------------------------------||-------------------------------------------||--0db--------------------------------------|
| || ||-------------------------------------------||-------------------------------------------||-------------------------------------------||--------------------------------------7\6--||--------------------------------------5\4--||--0-0-0--0-0--0-0-0--0-0--0-0-0--0-0-------| pm. . . . . . . . . . . . . . .
|--(10)===================================8----||-----------[Gradually release bend]-----------||----------------------------------------------||----------------------------------------------||----------------------------------------------||----------------------------------------------|
| || ||----------------------------------------------||----------------------------------------------||----------------------------------------------||--------------------------------------7\6/10--||--------------------------------------5\4/8---||--0-0-0--0-0--0-0-0--0-0--0-0-0--0-0----------|
|pm. . . . . . . . . . . . . . . || ||----------------------------------------<8>---||----------------------------------------------||----------------------------------------------||----------------------------------------------||----------------------------------------------||----------------------------------------------|
|--9------------------8---------------------||--"------------------"---------------------||-------------------------------------------||-------------------------------------------||-------------------------------------------||-------------------------------------------|
| || ||-------------------------------------------||-------------------------------------------||-------------------------------------------||--------------------------------------7\6--||--------------------------------------5\4--||--0-0-0--0-0--0-0-0--0-0--0-0-0--0-0-------| pm. . . . . . . . . . . . . . .
|--5-----------------<4>-----------------------||--"-------------------------------------------||----------------------------------------------||----------------------------------------------||----------------------------------------------||----------------------------------------------|
| || ||----------------------------------------------||----------------------------------------------||----------------------------------------------||--------------------------------------7\6/10--||--------------------------------------5\4/8---||--0-0-0--0-0--0-0-0--0-0--0-0-0--0-0----------| pm. . . . . . . . . . . . . . .
|--24p20-21p20----20-24p20-21p20----20-24p20-21p20--||--------------23----------------23-----------------||---------------------------------------------------||---------------------------------------------------||---------------------------------------------------||---------------------------------------------------|
| || ||---------------------------------------------------||---------------------------------------------------||---------------------------------------------------||---------------------------------------------------||---------------------------------------------------||--0---0---0------0---0------0---0---0------0---0---| pm. . . . . . . . . .
|--24p21p20-24p21p20-21p20-21p18p17-21p18p17-18p17--||---------------------------------------------------||---------------------------------------------------||---------------------------------------------------||---------------------------------------------------||---------------------------------------------------|
| || ||---------------------------------------------------||---------------------------------------------------||---------------------------------------------------||-----------------------------------7--\--6---------||-----------------------------------5--\--4---------||--0----0----0--------0----0------------------------| pm. . . . .
|--/18-15-17-15-14-15-14----14---------------------------------||---"--"--"--"--"--"--"--16-"--16-15-16-15-13-15-13-12-13-12---||------------------------"-----"--"--"--"--"--"--"--"--"---"---||--------------------------------------------------------------||--------------------------------------------------------------||--------------------------------------------------------------|
| || ||--------------------------------------------------------------||--------------------------------------------------------------||--------------------------------------------------------------||--------------------------------------------------------------||--------------------------------------------------------------||--0--0--0-----0--0-----0--0--0-----0--0-----0--0--0-----0--0--| pm. . . . . . . . . . . . . . .
|------------------------||-----12-----------------||--13-"--13-<12>---------||--"-----"---------------||------------------------||------------------------|
| || ||------------------------||------------------------||------------------------||------------7--\6/--10--||------------5--\4/--8---||------------------------|
|----------------------------------------------------------------||----------------------------------------------------------------||----------------------------------------------------------------||--3----------------2----0----2h3p2--3----------------2---0---2--||--3----------------2----0----2h3p2--3----------------2---0---2--||--3----3--3--3--3--2----0----2h3p2--3---3--3--3--3---2---0---2--|
|pm . . . . . . . . . || ||----------------------------------------------------------------||----------------------------------------------------------------||----------------------------------------------------------------||-----12-11-10----10-11-10--------------12-11-10----10-11-12-11--||--------------12----------12-9-8-9--------------12----"--"--"---||--15--------------------------------15--------------------------|
|---------------------------------------------------------------------||---------------------------------------------------------------------||---------------------------------------------------------------------||--3--------------------------------2---------0--------2--h--3--p--2--||--3--------------------------------2---------0--------2--h--3--p--2--||--3--------3----3----3----3--------2---------0--------2--h--3--p--2--|
|pm . . . . || ||---------------------------------------------------------------------||---------------------------------------------------------------------||---------------------------------------------------------------------||--11-11h12p11-10-11-10----11h12p11-10-11-10----11h12p11-10-11-10-----||--"--------------------12-------------------12-------------------12--||---------------------------------------------------------------------|
|------------------------------------------------------------||------------------------------------------------------------||------------------------------------------------------------||--3----------------------------------------2-------------0--||--3----------------------------------------2-------------0--||--3--------3-----3-----3-----3-------------2-------------0--|
| . . . . || ||------------------------------------------------------------||------------------------------------------------------------||------------------------------------------------------------||--11h12p11-10-11-10----11h12p11-10-11-10---------<10>--<3>--||--------------------12-------------------12-11-9------------||------------------------------------------------------------|
Verse
|---------------------------------------------------------||---------------------------------------------------------||---------------------------------------------------------||--6--6-7-6-6--6-6-6-7/10-10--6--6-7-6-6------------------||--4--4-5-4-4--4-4-4-5/8--8---4--4-5-4-4--4-5-2--4-0-<3>--||-----------------------------------------"-"-"--"-"------|
| || ||---------------------------------------------------------||---------------------------------------------------------||---------------------------------------------------------||--6--6-7-6-6--6-6-6-7/10-10--6--6-7-6-6------------------||--4--4-5-4-4--4-4-4-5/8--8---4--4-5-4-4--4-5-2--4-0------||-----------------------------------------"-"-"--"-"------|
|---------------------------------------------------------||---------------------------------------------------------||---------------------------------------------------------||--6--6-7-6-6--6-6-6-7/10-10--6--6-7-6-6------------------||--4--4-5-4-4--4-4-4-5/8--8---4--4-5-4-4--4-5-2--4-0-<3>--||-----------------------------------------"-"-"--"-"------|
| || ||---------------------------------------------------------||---------------------------------------------------------||---------------------------------------------------------||--6--6-7-6-6--6-6-6-7/10-10--6--6-7-6-6------------------||--4--4-5-4-4--4-4-4-5/8--8---4--4-5-4-4--4-5-2--4-0------||-----------------------------------------"-"-"--"-"------|
|---------------------------------------------------------||---------------------------------------------------------||---------------------------------------------------------||--6--6-7-6-6--6-6-6-7/10-10--6--6-7-6-6------------------||--4--4-5-4-4--4-4-4-5/8--8---4--4-5-4-4--4-5-2--4-0-<3>--||-----------------------------------------"-"-"--"-"------|
| || ||---------------------------------------------------------||---------------------------------------------------------||---------------------------------------------------------||--6--6-7-6-6--6-6-6-7/10-10--6--6-7-6-6------------------||--4--4-5-4-4--4-4-4-5/8--8---4--4-5-4-4--4-5-2--4-0------||-----------------------------------------"-"-"--"-"------|
|---------------------------------------------------------||---------------------------------------------------------||---------------------------------------------------------||--6--6-7-6-6--6-6-6-7/10-10--6--6-7-6-6------------------||--4--4-5-4-4--4-4-4-5/8--8---4--4-5-4-4--4-5-2--4-0-<3>--||-----------------------------------------"-"-"--"-"------|
| || ||---------------------------------------------------------||---------------------------------------------------------||---------------------------------------------------------||--6--6-7-6-6--6-6-6-7/10-10--6--6-7-6-6------------------||--4--4-5-4-4--4-4-4-5/8--8---4--4-5-4-4--4-5-2--4-0------||-----------------------------------------"-"-"--"-"------|
Chorus
|--------------------------------------------------------------||--------------------------------------------------------------||--------------------------------------------------------------||--11---11---11-11\9-9\7-7---12--11\9--11/12-11----------------||--------------------------------------------------------------||--11---11---11-11\9-9\7-7---12--11\9--11/12-11----------------|
| || ||--------------------------------------------------------------||--------------------------------------------------------------||--6-----------------------------------------------------------||--------------------------------------------------------------||--4-------------------------------------------4-5-2--4-0-<3>--||----------------------------------------------"-"-"--"-"------|
|--------------------------------------------------------------||--------------------------------------------------------------||--------------------------------------------------------------||--11---11---11-11\9-9\7-7---12--11\9--11/12-11----------------||--------------------------------------------------------------||--11---11---11-11\9-9\7-7---12--11\9--11/12-11----------------|
| || ||--------------------------------------------------------------||--------------------------------------------------------------||--6-----------------------------------------------------------||--------------------------------------------------------------||--4-------------------------------------------4-5-2--4-0-<3>--||----------------------------------------------"-"-"--"-"------|
Outro
|------------------------------------------------||------------------------------------------------||------------------------------------------------||--11---11---11-11\9-9\7-7---12--11\9--11/12-11--||------------------------------------------------||--11---11---11-11\9-9\7-7---12--11\9--11/12-11--|
| || ||------------------------------------------------||------------------------------------------------||------------------------------------------------||------------------------------------------------||------------------------------------------------||------------------------------------------------|
|------------------------------------------------||------------------------------------------------||------------------------------------------------||--11---11---11-11\9-9\7-7---12--11\9--11/12-11--||------------------------------------------------||--11---11---11-11\9-9\7-7---12--11\9--11/12-11--|
| || ||------------------------------------------------||------------------------------------------------||------------------------------------------------||------------------------------------------------||------------------------------------------------||------------------------------------------------|
|------------------------------------------------||------------------------------------------------||------------------------------------------------||--11---11---11-11\9-9\7-7---12--11\9--11/12-11--||------------------------------------------------||--11---11---11-11\9-9\7-7---12--11\9--11/12-11--|
| || ||------------------------------------------------||------------------------------------------------||------------------------------------------------||------------------------------------------------||------------------------------------------------||------------------------------------------------|
|------------------------------------------------||------------------------------------------------||------------------------------------------------||--11---11---11-11\9-9\7-7---12--11\9--11/12-11--||------------------------------------------------||--11---11---11-11\9-9\7-7---12--11\9--11/12-11--|
| || ||------------------------------------------------||------------------------------------------------||------------------------------------------------||------------------------------------------------||------------------------------------------------||------------------------------------------------|... fade out
Please rate this tab:
x1.0