Behemoth - The Harlot Ov The Saints tab

Song: The Harlot Of tHe Saints
Artist: Behemoth
Album: Zos Kia Cultus (Here And Beyond)

Tuning: C# F# B E G# C#


Fig. 1

|--------------------------------------||--------------------------------------||--------------------4--4-------5--8---||--------------------------------------||--------------------2--2-------3--6---||-431431431431--0--0------0-0----------|
|--------------------------------------||--------------------------------------||--------------------4--4-------5--8---||--------------------------------------||--------------------2--2-------3--6---||-431431431431--0--0------0-0----------|
|--------------------------------------||--------------------------------------||--------------------4--4-------5--8---||--------------------------------------||--------------------2--2-------3--6---||-431431431431--0--0------0-0----------|
|---------------||---------------||---------------||---------------||---------------||-431431431431--|
Fig. 2.
|------------------------------------------------||------------------------------------------------||-------9--9-------10-7-------9--9--6--10-10-7---||------------------------------------------------||-------7--7-------8--5-------7--7--4--8--8--5---||--0--0-------0--0-------0--0--------------------|
|------------------------------------------------||------------------------------------------------||-------9--9-------10-7-------9--9--6--10-10-7---||------------------------------------------------||-------7--7-------8--5-------7--7--4--8--8--5---||--0--0-------0--0-------0--0--------------------|
|------------------------------------------------||------------------------------------------------||-------9--9-------10-7-------9--9--6--10-10-7---||------------------------------------------------||-------7--7-------8--5-------7--7--4--8--8--5---||--0--0-------0--0-------0--0--------------------|
|------------------------------------------------||------------------------------------------------||-------9--9-------10-7-------9--9--6--10-10-7---||------------------------------------------------||-------7--7-------8--5-------7--7--4--8--8--5---||--0--0-------0--0-------0--0--------------------|
Fig. 3.
|-------------------------------------------||-------------------------------------------||-------------------------4--4-------5--8---||-------------------------------------------||---------33330000--------2--2-------3--6---||-431431------------0--0--------0-0---------|
|-------------------------------------------||-------------------------------------------||-------------------------4--4-------5--8---||-------------------------------------------||---------33330000--------2--2-------3--6---||-431431------------0--0--------0-0---------|
|-------------------------------------------||-------------------------------------------||-------------------------4--4-------5--8---||-------------------------------------------||---------33330000--------2--2-------3--6---||-431431------------0--0--------0-0---------|
|---------------------||---------------------||---------------------||---------------------||---------33330000----||-431431--------------|
Fig. 2. X 2 Fig. 4.
|----------------------------||----------------------------||----------------------------||---A.H.---------------------||----2-----------------------||-0-----0230--2343--532321---|
|-------------------------------||-------------------------------||-------------------------------||---A.H.------8--7-7--5-5--3-3--||----2--------------------------||-0-----0230--6--5-5--3-3--2-2--|
|----------------------------||----------------------------||----------------------------||---A.H.---------------------||----2-----------------------||-0-----0230--2343--532321---|
|---------------------------||---------------------------||---------------------------||---A.H.------8--7-7--5-5---||----2----------------------||-0-----0230--6--5-5--3-3---|
Fig. 2. X 2 Fig. 5.
|---------------------------------------||---------------------------------------||---------------------------------------||---------------------------------------||---------------------------------------||-00000000--00000000-00000000-00000000--|
|---------------------------------------||---------------------------------------||---------------------------------------||---------------------------------------||---------------------------------------||-00000000--00000000-00000000-00000000--|
Fig.6.
|-----------------------------------------||-----------------------------------------||--9------------------10--------7---------||-----------------------------------------||--7------------------8---------5---------||-----------------------------------------|
| ||-----------------------------------------||-----------------------------------------||-----------------------------------------||-----------------------------------------||-----------------------------------------||-00000000--00000000--00000000--00000000--|
|-----------------------------------------||-----------------------------------------||--9------------------10--------7---------||-----------------------------------------||--7------------------8---------5---------||-----------------------------------------|
| ||-----------------------------------------||-----------------------------------------||-----------------------------------------||-----------------------------------------||-----------------------------------------||-00000000--00000000--00000000--00000000--|
|-----------------------------------------||-----------------------------------------||--9------------------10--------7---------||-----------------------------------------||--7------------------8---------5---------||-----------------------------------------|
| ||-----------------------------------------||-----------------------------------------||-----------------------------------------||-----------------------------------------||-----------------------------------------||-00000000--00000000--00000000--00000000--|
|-----------------------------------------||-----------------------------------------||--6--------------------------------------||--------------------A.H.-----------------||--4------------------4-------------------||-----------------------------------------|
| ||-----------------------------------------||-----------------------------------------||-----------------------------------------||-----------------------------------------||-----------------------------------------||-00000000--00000000--00000000--00000000--|
Fig. 7.
|-------------------------------||-------------------------------||-------------------------------||-------------3--5-5--6-6--9-9--||-------------------------------||-0000--0000--1--3-3--4-4--7-7--|
|-------------------------------||-------------------------------||-------------------------------||-------------3--5-5--6-6--9-9--||-------------------------------||-0000--0000--1--3-3--4-4--7-7--|
|-------------------------------||-------------------------------||-------------------------------||-------------3--5-5--6-6--9-9--||-------------------------------||-0000--0000--1--3-3--4-4--7-7--|
|-------------------------------||-------------------------------||-------------------------------||-------------3--5-5--6-6--9-9--||-------------------------------||-0000--0000--1--3-3--4-4--7-7--|
Fig. 8.
|---------------------------------||---------------------------------||---------------------------------||---------------3--5-5--6-6--9-9--||---------------------------------||-000000000000--1--3-3--4-4--7-7--|
|---------------------------------||---------------------------------||---------------------------------||---------------3--5-5--6-6--9-9--||---------------------------------||-000000000000--1--3-3--4-4--7-7--|
|---------------------------------||---------------------------------||---------------------------------||---------------3--5-5--6-6--9-9--||---------------------------------||-000000000000--1--3-3--4-4--7-7--|
|-----------------||-----------------||-----------------||-----------------||-----------------||-000000000000----|
Fig. 9.
|--------------------------------------||--------------------------------------||--------------------4--4-------5--8---||--------------------------------------||--------------------2--2-------3--6---||-431431431431--0--0------0-0----------|
|------------------||------------------||------------------||------------------||---------------2--||-431431431431--0--|
|--------------------------------------||--------------------------------------||--------------------4--4-------5--8---||--------------------------------------||--------------------2--2-------3--6---||-431431431431--0--0------0-0----------|
|-----------------||-----------------||-----------------||-----------------||-----------------||-431431431431----|
Tap to rate this tab
 
# A B C D E F G H I J K L M N O P Q R S T U V W X Y Z