Behemoth - Conquer All tab

Behemoth
Conquer All

Intro

Gtr 1|--------------------------------------------------||--------------------------------------------------||10-9----------------------------------------------||10-9----------------------------------------------||-8-7----------------------------------------------||-----------------------------------111-444-111-000|
... ... ... ...| x2Gtr 2 ||--------------------------------------------------||--------------------------------------------------||10-9---------10-9-7-9-10-9------------------------||10-9---------10-9-7-9-10-9------------------------||-8-7----------8-7-5-7--8-7------------------------||-----000-000---------------000-000-111-444-111-000| ... ... ... ... ... ... ... ...
Gtr 1 (Timing may be a little off)|--------------------------------------------------||--------------------------------------------------||10-9~--------------------7-7/9-9/10-10~-----------||-x-x---------------------x-x---x-----x------------||-8-7~--------------------5-5/7-7/-8--8~-----------||--------------------------------------------------|
|
Gtr 2 ||--------------------------------------------------||--------------------------------------------------||10-9---------10-9-7-9-10-9------------------------||10-9---------10-9-7-9-10-9------------------------||-8-7----------8-7-5-7--8-7------------------------||-----000-000---------------000-000-111-444-111-000| ... ... ... ... ... ... ... ...
Gtr 1|--------------------------------------------------||--------------------------------------------------||10-9~---------------------------------------------||-x-x----------------------------------------------||-8-7~---------------------------------------------||-----------------------------------111-444-111-000|
... ... ... ...|Gtr 2 ||--------------------------------------------------||--------------------------------------------------||10-9---------10-9-7-9-10-9------------------------||10-9---------10-9-7-9-10-9------------------------||-8-7----------8-7-5-7--8-7------------------------||-----000-000---------------000-000-111-444-111-000| ... ... ... ... ... ... ... ...
Gtr 1 (Timing may be a little off)|--------------------------------------------------||--------------------------------------------------||10-9~--------------------7-7/9-9/12-12~-----------||-x-x---------------------x-x---x-----x------------||-8-7~--------------------5-5/7-7/10-10~-----------||--------------------------------------------------|
|
Gtr 2 ||--------------------------------------------------||--------------------------------------------------||10-9---------10-9-7-9-10-9------------------------||10-9---------10-9-7-9-10-9------------------------||-8-7----------8-7-5-7--8-7------------------------||-----000-000---------------000-000-111-444-111-000| ... ... ... ... ... ... ... ...
Gtr 1|--------------------------------------------------||--------------------------------------------------||10-9~---------------------------------------------||-x-x----------------------------------------------||-8-7~---------------------------------------------||-----------------------------------111-444-111-000|
... ... ... ...|Gtr 2 ||--------------------------------------------------||--------------------------------------------------||10-9---------10-9-7-9-10-9------------------------||10-9---------10-9-7-9-10-9------------------------||-8-7----------8-7-5-7--8-7------------------------||-----000-000---------------000-000-111-444-111-000| ... ... ... ... ... ... ... ...
Verse Riff
Gtr 1|--------------------------------------------------||--------------------------------------------------||10-9---------10-9-7-9-10-9------------------------||10-9---------10-9-7-9-10-9------------------------||-8-7----------8-7-5-7--8-7------------------------||-----000-000---------------000-000-111-444-111-000|
... ... ... ... ... ... ... ...|Gtr 2 ||--------------------------------------------------||--------------------------------------------------||10-9---------10-9-7-9-10-9------------------------||10-9---------10-9-7-9-10-9------------------------|--------||-8-7----------8-7-5-7--8-7------------------------| ||-----000-000---------------000-000-111-444-111-000| | ... ... ... ... ... ... ... ... |
|
Gtr 1 x2|--------------------------------------------------| ||--------------------------------------------------| ||10-9---------10-9-7-9--7-6------------------------| ||10-9---------10-9-7-9--x-x------------------------| ||-8-7----------8-7-5-7--5-4------------------------|--------||-----000-000---------------000-000-111-444-111-000|
... ... ... ... ... ... ... ...|Gtr 2 ||--------------------------------------------------||--------------------------------------------------||10-9---------10-9-7-9-10-9------------------------||10-9---------10-9-7-9-10-9------------------------||-8-7----------8-7-5-7--8-7------------------------||-----000-000---------------000-000-111-444-111-000| ... ... ... ... ... ... ... ...
Pre-Chorus
Gtr 1|------------------------||------------------------||------------------------||------------------------||2----------/6-------/6-3||0----0-0-0-/4-0-0-0-/4-1|
. . . . . . | x2Gtr 2 ||------------------------||------------------------||------------------------||------------------------||------------------------||0---------1-4----0-1-4-1| " " " " " " "
Gtr 1|------------------------||------------------------||9~----------------------||x-----------------------||7~----------------------||------------------------|
Gtr 2 ||------------------------||------------------------||------------------------||------------------------||------------------------||0---------1-4----0-1-4-1| " " " " " " "
Chorus
Both Gtrs 1,3 2 4|--------------------|-------------|----------3#---------------| x2|--------------------|-------------|-------------3#------------|(Rake N.H.s)|--------------------|-------------|----------------3#---------||--5\4---5\4---5\4---|8-7-5-7-5-4-2|8-7-5-7-5----------3#------||2-3\2---3\2---3\2---|6-5-3-5-3-2-0|6-5-3-5-3-------------3#---||0-3\2-0-3\2-0-3\2-0-|6-5-3-5-3-2-0|6-5-3-5-3----------------3#| . . . . . . . . . . . . . . . .
Interlude (Second time through verse to chorus, go to Solo & rythem section)
Gtr 1|--------------------------------------------------||--------------------------------------------------||10-9~---------------------------------------------||-x-x----------------------------------------------||-8-7~------------x-x-x--x-x-x--x-x----------------||-----------------x-x-x--x-x-x--x-x-111-444-111-000|
. . . . . . . . ... ... ... ...| x4Gtr 2 ||--------------------------------------------------||--------------------------------------------------||10-9---------10-9-7-9-10-9------------------------||10-9---------10-9-7-9-10-9------------------------||-8-7----------8-7-5-7--8-7------------------------||-----000-000---------------000-000-111-444-111-000| ... ... ... ... ... ... ...
Gtr 1|----------------------------------------------||----------------------------------------------||--10--9-----9------------13-12-10-12-10--9----||--------11----11-10-11---------------------11-||----------------------------------------------||0----------------------0----------------------|
. . |Gtr 2 ||----------------------------------------------||----------------------------------------------||--13-12----12------------16-15-13-15-13-12----||--------14----14-13-14---------------------14-||----------------------------------------------||0----------------------0----------------------| . .
Gtr 1|--------------------------------------------||--------------------------------------------||--10--9-----9------------13-12-10-12-10--9*-||--------11----11-10-11----------------------||--------------------------------------------||0----------------------0--------------------|
. . |Gtr 2 ||--------------------------------------------||--------------------------------------------||--13-12----12------------16-15-13-15-13-12*-||--------14----14-13-14----------------------||--------------------------------------------||0----------------------0--------------------| . .
Gtr 1|----------------------------------------------||----------------------------------------------||--10--9-----9------------13-12-10-12-10--9----||--------11----11-10-11---------------------11-||----------------------------------------------||0----------------------0----------------------|
. . |Gtr 2 ||----------------------------------------------||----------------------------------------------||--13-12----12------------16-15-13-15-13-12----||--------14----14-13-14---------------------14-||----------------------------------------------||0----------------------0----------------------| . .
Gtr 1|----------------------------------------------||----------------------------------------------||--10--9-----9---------------------------------||--------11----11-10-11-13-12-10-12-10--9-10--7||----------------------------------------------||0---------------------------------------------|
. |Gtr 2 ||----------------------------------------------||----------------------------------------------||--13-12----12---------------------------------||--------14----14-13-14-16-15-13-15-13-12-13-10||----------------------------------------------||0---------------------------------------------| .
Go back to verse and play through to the chorus, after chorus play this. Solo
Gtr 1|-------------------------------------||-------------------------------------||------9~----7--10--9\7-9~----5---10--||------x-----x---x--x---x-----x----x--||2-2-2-7~----5---8--7\5-7~----3----8--||0-0-0--------------------------------| . . .
|---------------------------------------------13p12p10h12~--13p12p10h12~||---12-12-12~-----12-13-12-13-15-15b--15~-------------------------------||14------------14-------------------------------------------------------||-----------------------------------------------------------------------||-----------------------------------------------------------------------||-----------------------------------------------------------------------|
|---12-13-15-b15-b15-b15-b15-13-12-13~----17p13-------------------------||15---------------------------------------------15----------------15----||--------------------------------------------------14----------14----14-||-----------------------------------------------------15----15----------||--------------------------------------------------------17-------------||-----------------------------------------------------------------------|
|----------------------------------15p12-------------------------------||---------15--16-15-13-15-13-12----------13----------------13----------||------14-----------------------------------14----------14----14-------||---14-----------------------------------------14----14----------14----||15-----------------------------------------------15----------------15-||----------------------------------------------------------------------|
|-------------------15br-14-12~----12h14h15p14p12---------------------12-||------13--16-15-13-------------------------------15-13-12~--------13----||---14----------------------------------------------------------14-------||14----------------------------------------------------------14----------||------------------------------------------------------------------------||------------------------------------------------------------------------|
|17p12------------15br--14--12-----------------------15--14--12-------||------13---------------------------------------12~--------------12~--||---------14---------------------------------12-----------------------||------------14~--------------------------12--------------------------||--------------------------------------14-----------------------------||--------------------------------12h15--------------------------------|
|--------------------------------------------------------------15--14--12-||---------------12~--13-12-13-13br-13-12~-----------------12~-------------||------------12----------------------------------------12-----------------||---------12----------------------------------------12--------------------||------14----------------------------------------14-----------------------||12h15-------------------------------------12h15--------------------------|
|-------------15br--15br--12~--||12~--13--15-------------------||------------------------------||------------------------------||------------------------------||------------------------------|
Rythem Section
Gtr 2|-------------------------------||-------------------------------| x4|------9-9----------------------||------9-9----------------------||2-2-2-7-7----------------------||0-0-0-----0-4-1--0-1-4--1-4-5--| . . . " " " " " " " " "
|---------------||---------------||---------5~----||2--------5~----||2--------3~----||0--------------|I don't know what's played after this, sorry.
Outro
Gtr 1|--------------------------------------------------||--------------------------------------------------||----------------5~--------------------9-9-9-9-9-9-||----------------x---------------------x-x-x-x-x-x-|----||2~--------------3~----6~--------------7-7-7-7-7-7-| ||0~--------------------4~--------------------------| |
Gtr 2 x2|--------------------------------------------------| ||--------------------------------------------------| ||----------------5~--------------------9-9-9-9-9-9-|----||----------------5~--------------------9-9-9-9-9-9-||2-2--2--2-2-2-2-3~----6-6--6--6-6-6-6-7-7-7-7-7-7-||0-0--0--0-0-0-0-------4-4--4--4-4-4-4-------------| . . . . . . . . . . . . . .
Both Gtrs|-------------------||-------------------| x4|-------------------||-------------------||2-2--2--2-2-2-2-2--||0-0--0--0-0-0-0-0--| . . . . . . .
I think most of it's right... I don't know about the tuning, it's either C or C#.
Tap to rate this tab
 
# A B C D E F G H I J K L M N O P Q R S T U V W X Y Z