Behemoth - Slaying The Prophets Ov Isa tab

Behemoth
Slaying the Prophets Ov Isa
Tabbed by : \m/Gaz

Guitar 1 [Nergal] = (C#F#BEG#C#) (top guitar line)
Guitar 2 [Seth]   = (C#F#BEG#C#) (second one down)
Guitar 3 [Nergal] = (C#F#BEG#C#) (Third one down)
(Guitar 3 only used on some occasions)


Intro


|-----------------------------------------||-----------------------------------------||-----------------------------------------||---------7-6----------6------7-6---------||--7/8\7--5-4-8-7--7/8-4--8-7-5-4--7/8\7--||--5/6\5------6-5--5/6----6-5------5/6\5--|
| || ||-----------------------------------------||-----------------------------------------||-----------------------------------------||---------7-6----------6------7-6---------||--7/8\7--5-4-8-7--7/8-4--8-7-5-4--7/8\7--||--5/6\5------6-5--5/6----6-5------5/6\5--|
|--------------------------------------||--------------------------------------||--------------------------------------||--7-6----------6----------------------||--5-4-8-7--7/8-4--8-8--7-7--5-5--3-3--||------6-5--5/6----6-6--5-5--3-3--1-1--|
| pm. . . . . . . . || ||--------------------------------------||--------------------------------------||--------------------------------------||--7-6----------6----------------------||--5-4-8-7--7/8-4--8-8--7-7--5-5--3-3--||------6-5--5/6----6-6--5-5--3-3--1-1--| pm. . . . . . . .
|-----------------------------------------||-----------------------------------------||-----------------------------------------||---------7-6----------6------7-6---------||--7/8\7--5-4-8-7--7/8-4--8-7-5-4--7/8\7--||--5/6\5------6-5--5/6----6-5------5/6\5--|
| || ||-----------------------------------------||-----------------------------------------||-----------------------------------------||---------7-6----------6------7-6---------||--7/8\7--5-4-8-7--7/8-4--8-7-5-4--7/8\7--||--5/6\5------6-5--5/6----6-5------5/6\5--|
|--------------------------------------||--------------------------------------||--------------------------------------||--7-6----------6----------------------||--5-4-8-7--7/8-4--8-8--7-7--5-5--3-3--||------6-5--5/6----6-6--5-5--3-3--1-1--|
| pm. . . . . . . . || ||--------------------------------------||--------------------------------------||--------------------------------------||--7-6----------6----------------------||--5-4-8-7--7/8-4--8-8--7-7--5-5--3-3--||------6-5--5/6----6-6--5-5--3-3--1-1--| pm. . . . . . . .
|------------------------||------------------------||------------------------||-----------5---3--------||--7/8\7----5---3--------||--5/6\5----3---1---<3>--|
| || ||------------------------||------------------------||------------------------||-----------5---3--------||--7/8\7----5---3--------||--5/6\5----3---1--------|
Verse
|----------------------------------------------------------||----------------------------------------------------------||----------------------------------------------------------||------9-----10-----9-----10-----9-----10-----6p5----------||------7-----8------7-----8------7-----8--------------8p7--||--0-0---0-0----0-0---0-0----0-0---0-0----0-0-----0-0------|
| || ||----------------------------------------------------------||----------------------------------------------------------||----------------------------------------------------------||------2--------------------------------------6p5----------||------2----------------------------------------------8p7--||------0----------------------------------0-0-----0-0------|
|------------------------------------------------||------------------------------------------------||------------------------------------------------||------9-----10-----9-----10---------------------||------7-----8------7-----8---10-9-10--14-13-10--||--0-0---0-0----0-0---0-0-----8--7-8---12-11-8---|
| || ||------------------------------------------------||------------------------------------------------||------------------------------------------------||------------------------------------------------||-----------------------------10-9-10--14-13-10--||-----------------------------8--7-8---12-11-8---|
|----------------------------------------------------------||----------------------------------------------------------||----------------------------------------------------------||------9-----10-----9-----10-----9-----10-----6p5----------||------7-----8------7-----8------7-----8--------------8p7--||--0-0---0-0----0-0---0-0----0-0---0-0----0-0-----0-0------|
| || ||----------------------------------------------------------||----------------------------------------------------------||----------------------------------------------------------||------9-----10-----9-----10-----9-----10-----6p5----------||------7-----8------7-----8------7-----8--------------8p7--||--0-0---0-0----0-0---0-0----0-0---0-0----0-0-----0-0------|
|------------------------------------------------||------------------------------------------------||------------------------------------------------||------9-----10-----9-----10---------------------||------7-----8------7-----8---10-9-10--14-13-10--||--0-0---0-0----0-0---0-0-----8--7-8---12-11-8---|
| || ||------------------------------------------------||------------------------------------------------||------------------------------------------------||------9-----10-----9-----10---------------------||------7-----8------7-----8---10-9-10--14-13-10--||--0-0---0-0----0-0---0-0-----8--7-8---12-11-8---|
|----------------------------------------------------------||----------------------------------------------------------||----------------------------------------------------------||------9-----10-----9-----10-----9-----10-----6p5----------||------7-----8------7-----8------7-----8--------------8p7--||--0-0---0-0----0-0---0-0----0-0---0-0----0-0-----0-0------|
| || ||----------------------------------------------------------||----------------------------------------------------------||----------------------------------------------------------||------9-----10-----9-----10-----9-----10-----6p5----------||------7-----8------7-----8------7-----8--------------8p7--||--0-0---0-0----0-0---0-0----0-0---0-0----0-0-----0-0------|
|-----------------------------||-----------------------------||-----------------------------||------9-----10-----9-----10--||------7-----8------7-----8---||--0-0---0-0----0-0---0-0-----|
| || ||-----------------------------||-----------------------------||-----------------------------||------9-----10-----9-----10--||------7-----8------7-----8---||--0-0---0-0----0-0---0-0-----|
Pre-chorus
|------------------------------------------------------------||------------------------------------------------------------||------------------------------------------------------------||------------------------------------------------------------||--10-9-10--14-13-10--9-6-9-10--10-9-10--14-13-10--9-6-9-10--||--8--7-8---12-11-8---7-4-7-8---8--7-8---12-11-8---7-4-7-8---|
| || ||------------------------------------------------------------||------------------------------------------------------------||------------------------------------------------------------||------------------------------------------------------------||--10-9-10--14-13-10--9-6-9-10--10-9-10--14-13-10--9-6-9-10--||--8--7-8---12-11-8---7-4-7-8---8--7-8---12-11-8---7-4-7-8---|
Chorus
|--------------------------------------------------------||--------------------------------------------------------||--------------------------------------------------------||--------------------------------------------------------||--6-5-6--10-9-6--5-2-5------6-5-6--10-9-6--5-2-5-6-5-2--||--4-3-4--8--7-4--3-0-3-<3>--4-3-4--8--7-4--3-0-3-4-3-0--|
| pm. . . || ||--------------------------------------------------------||--------------------------------------------------------||--------------------------------------------------------||--------------------------------------------------------||--6-5-6--10-9-6--5-2-5------6-5-6--10-9-6--5-2-5-6-5-2--||--4-3-4--8--7-4--3-2-3------4-3-4--8--7-4--3-2-3-4-3-2--| pm. . .
Guitar fill
|--11p8-----11p8-11p8-----11p8--15p12--------||-------9p8-----------9p8-------------13p12--||--------------------------------------------||--------------------------------------------||--------------------------------------------||--------------------------------------------|
| || ||--------------------------------------------||--------------------------------------------||------------------------------5-------------||--2---------------------------5-------------||--2---------------------------3-------------||--0-----------------------------------------|
|--15p12-15p12-------15p12--19p15-------19p15-19p15--||--------------13p12--------------16p15--------------||----------------------------------------------------||----------------------------------------------------||----------------------------------------------------||----------------------------------------------------|
| || ||----------------------------------------------------||----------------------------------------------------||----------------------------------------------------||---------------------------6------------------------||---------------------------6------------------------||---------------------------4------------------------|
|--------19p15--18p14-------18p14-18p14-------18p14------||--16p15--------------15p14-------------15p14--------17--||--------------------------------------------------------||--------------------------------------------------------||--------------------------------------------------------||--------------------------------------------------------|
| || ||--------------------------------------------------------||--------------------------------------------------------||--------5-----4-----------------------------------------||--------5-----4-----------------------------------------||--------3-----2-----------------------------------------||--------------------------------------------------------|
Verse
|----------------------------------------------------------||----------------------------------------------------------||----------------------------------------------------------||----------------------------------------------------------||----------------------------------------------------------||----------------------------------------------------------|
| || ||----------------------------------------------------------||----------------------------------------------------------||----------------------------------------------------------||------9-----10-----9-----10-----9-----10-----6p5----------||------7-----8------7-----8------7-----8--------------8p7--||--0-0---0-0----0-0---0-0----0-0---0-0----0-0-----0-0------|
|------------------------------------------------||------------------------------------------------||------------------------------------------------||------9-----10-----9-----10---------------------||------7-----8------7-----8---10-9-10--14-13-10--||--0-0---0-0----0-0---0-0-----8--7-8---12-11-8---|
| || ||------------------------------------------------||------------------------------------------------||------------------------------------------------||------9-----10-----9-----10---------------------||------7-----8------7-----8---10-9-10--14-13-10--||--0-0---0-0----0-0---0-0-----8--7-8---12-11-8---|
|----------------------------------------------------------||----------------------------------------------------------||----------------------------------------------------------||------9-----10-----9-----10-----9-----10-----6p5----------||------7-----8------7-----8------7-----8--------------8p7--||--0-0---0-0----0-0---0-0----0-0---0-0----0-0-----0-0------|
| || ||----------------------------------------------------------||----------------------------------------------------------||----------------------------------------------------------||------9-----10-----9-----10-----9-----10-----6p5----------||------7-----8------7-----8------7-----8--------------8p7--||--0-0---0-0----0-0---0-0----0-0---0-0----0-0-----0-0------|
|------------------------------------------------||------------------------------------------------||------------------------------------------------||------9-----10-----9-----10---------------------||------7-----8------7-----8---10-9-10--14-13-10--||--0-0---0-0----0-0---0-0-----8--7-8---12-11-8---|
| || ||------------------------------------------------||------------------------------------------------||------------------------------------------------||------9-----10-----9-----10---------------------||------7-----8------7-----8---10-9-10--14-13-10--||--0-0---0-0----0-0---0-0-----8--7-8---12-11-8---|
|----------------------------------------------------------||----------------------------------------------------------||----------------------------------------------------------||------9-----10-----9-----10-----9-----10-----6p5----------||------7-----8------7-----8------7-----8--------------8p7--||--0-0---0-0----0-0---0-0----0-0---0-0----0-0-----0-0------|
| || ||----------------------------------------------------------||----------------------------------------------------------||----------------------------------------------------------||------9-----10-----9-----10-----9-----10-----6p5----------||------7-----8------7-----8------7-----8--------------8p7--||--0-0---0-0----0-0---0-0----0-0---0-0----0-0-----0-0------|
|-----------------------------||-----------------------------||-----------------------------||------9-----10-----9-----10--||------7-----8------7-----8---||--0-0---0-0----0-0---0-0-----|
| || ||-----------------------------||-----------------------------||-----------------------------||------9-----10-----9-----10--||------7-----8------7-----8---||--0-0---0-0----0-0---0-0-----|
Pre-chorus
|------------------------------------------------------------||------------------------------------------------------------||------------------------------------------------------------||------------------------------------------------------------||--10-9-10--14-13-10--9-6-9-10--10-9-10--14-13-10--9-6-9-10--||--8--7-8---12-11-8---7-4-7-8---8--7-8---12-11-8---7-4-7-8---|
| || ||------------------------------------------------------------||------------------------------------------------------------||------------------------------------------------------------||------------------------------------------------------------||--10-9-10--14-13-10--9-6-9-10--10-9-10--14-13-10--9-6-9-10--||--8--7-8---12-11-8---7-4-7-8---8--7-8---12-11-8---7-4-7-8---|
Chorus
|--------------------------------------------------------||--------------------------------------------------------||--------------------------------------------------------||--------------------------------------------------------||--6-5-6--10-9-6--5-2-3------6-5-6--10-9-6--5-2-5-6-5-2--||--4-3-4--8--7-4--3-0-1-<3>--4-3-4--8--7-4--3-0-3-4-3-0--|
| pm. . . || ||--------------------------------------------------------||--------------------------------------------------------||--------------------------------------------------------||--------------------------------------------------------||--6-5-6--10-9-6--5-2-3------6-5-6--10-9-6--5-2-5-6-5-2--||--4-3-4--8--7-4--3-2-1------4-3-4--8--7-4--3-0-3-4-3-2--| pm. . .
Bridge
|-------------------------------------------------------||-------------------------------------------------------||-------------------------------------------------------||--2----------------------------------------------------||--2----------------------------------------------------||--0----------------------------------------------------|
| || ||-------------------------------------------------------||-------------------------------------------------------||-------------------------------------------------------||--2----------------------------------------------------||--2----------------------------------------------------||--0----------------------------------------------------|
|----------------------------------||----------------------------------||----------------------------------||--~\----------------2-2--4--3--2--||--~\----------------2-2--2--3--2--||--~\----------------0-0-----1--0--|
| || ||----------------------------------||----------------------------------||----------------------------------||--~\----------------2-2--4--3--2--||--~\----------------2-2--2--3--2--||--~\----------------0-0-----1--0--|
|--------------------------------------------------------||--------------------------------------------------------||--------------------------------------------------------||--9------------12------------11------------8------------||--7------------10------------9-------------6------------||------6-3-2-3-------6-3-2-3-------6-3-2-3------6-3-2-3--|
| || ||--------------------------------------------------------||--------------------------------------------------------||--------------------------------------------------------||--9------------12------------11------------8------------||--7---8-5-4-5--10---8-5-4-5--9----8-5-4-5--6---8-5-4-5--||--------------------------------------------------------|
|--------------------------------------------------------||--------------------------------------------------------||--------------------------------------------------------||--9------------12------------11------------8------------||--7------------10------------9-------------6------------||------6-3-2-3-------6-3-2-3-------6-3-2-3------6-3-2-3--|
| || ||--------------------------------------------------------||--------------------------------------------------------||--------------------------------------------------------||--9------------12------------11------------8------------||--7---8-5-4-5--10---8-5-4-5--9----8-5-4-5--6---8-5-4-5--||--------------------------------------------------------|
|--------------------------------------------------------||--------------------------------------------------------||--------------------------------------------------------||--9------------12------------11------------8------------||--7------------10------------9-------------6------------||------6-3-2-3-------6-3-2-3-------6-3-2-3------6-3-2-3--|
| || ||--------------------------------------------------------||--------------------------------------------------------||--------------------------------------------------------||--9------------12------------11------------8------------||--7---8-5-4-5--10---8-5-4-5--9----8-5-4-5--6---8-5-4-5--||--------------------------------------------------------|
|--------------------------------------------------------||--------------------------------------------------------||--------------------------------------------------------||--9------------12------------11------------8------------||--7------------10------------9-------------6------------||------6-3-2-3-------6-3-2-3-------6-3-2-3------6-3-2-3--|
| || ||--------------------------------------------------------||--------------------------------------------------------||--------------------------------------------------------||--9------------12------------11------------8------------||--7---8-5-4-5--10---8-5-4-5--9----8-5-4-5--6---8-5-4-5--||--------------------------------------------------------|
|---------------------------------------------------||---------------------------------------------------||---------------------------------------------------||---------------------------------------------------||---------------------------------------------------||--2--3--2--3--6--3--2--3---2--3--2--3--6--3--2--3--|
| || ||---------------------------------------------------||---------------------------------------------------||---------------------------------------------------||---------------------------------------------------||--4--5--4--5--8--5--4--5---4--5--4--5--8--5--4--5--||---------------------------------------------------|
|---------------------------------------------------||---------------------------------------------------||---------------------------------------------------||---------------------------------------------------||---------------------------------------------------||--2--3--2--3--6--3--2--3---2--3--2--3--6--3--2--3--|
| || ||---------------------------------------------------||---------------------------------------------------||---------------------------------------------------||---------------------------------------------------||--4--5--4--5--8--5--4--5---------------------------||---------------------------------------------------|
Guitar solo
|--------------------------------17-(18)--||-----------------------------------------||-----------------------------------------||-----------------------------------------||-----------------------------------------||-----------------------------------------|
| || ||-----------------------------------------||-----------------------------------------||-----------------------------------------||--9--------12--------11--------8---------||--7--------10--------9---------6---------||-----------------------------------------|
|-----19--18-------------------------------||--------------19--20---(22)-20-19---------||------------------------------------------||------------------------------------------||------------------------------------------||------------------------------------------|
| || ||------------------------------------------||------------------------------------------||------------------------------------------||--9--------12--------11----------8--------||--7--------10--------9-----------6--------||------------------------------------------|
|--19-15-------19-15-19-15-------19-15-19-15--------||--------17----------------17----------------17-----||-----------16----------------16----------------16--||---------------------------------------------------||---------------------------------------------------||---------------------------------------------------|
| || ||---------------------------------------------------||---------------------------------------------------||---------------------------------------------------||--9------------------------------------------------||--7------------------------------------------------||---------------------------------------------------|
|--/22-22-20-19-20-19-17-19-17--------||------------------------------20-19--||-------------------------------------||-------------------------------------||-------------------------------------||-------------------------------------|
| || ||-------------------------------------||-------------------------------------||-------------------------------------||--12---------------------------------||--10---------------------------------||-------------------------------------|
|---------------------------------------------------||--19-20-19-17-19-17-15-17-15-14-15-14-12-14-12-11--||--"--"--"--"--"--"--"--"--"--"--"--"--"--"--"--"---||---------------------------------------------------||---------------------------------------------------||---------------------------------------------------|
| || ||---------------------------------------------------||---------------------------------------------------||---------------------------------------------------||--11-----------------------------------------------||--9------------------------------------------------||---------------------------------------------------|
|----------------------------||--12-11-8-11-8-7-8-7-5-5/7--||--"--"--"-"--"-"-"-"-"------||----------------------------||----------------------------||----------------------------|
| || ||----------------------------||----------------------------||----------------------------||--8-------------------------||--6-------------------------||----------------------------|
|-------------------------------||--12-13--10-12-----------------||------------------11-12--9-11--||-------------------------------||-------------------------------||-------------------------------|
| || ||-------------------------------||-------------------------------||-------------------------------||--9--------------12------------||--7--------------10------------||-------------------------------|
|-------------------------------------------||-------------10--12--13--12--13--15--<17>--||--9--11--12--"---"---"---"---"---"---------||--"--"---"---------------------------------||-------------------------------------------||-------------------------------------------|
| || ||-------------------------------------------||-------------------------------------------||-------------------------------------------||--11---------------------8-----------------||--9----------------------6-----------------||-------------------------------------------|
|---------------------------------------------------------------||---------------------------------------------------------------||---------------------------------------------------------------||------9-----10-----9-----10-----9-----10----------6p5----------||------7-----8------7-----8------7-----8-------------------8p7--||--0-0---0-0----0-0---0-0----0-0---0-0---------0-0-----0-0------|
| || ||--<12>-<12>-<12>-10h12p10-9-10-9----9--------------------------||---------------------------------11---11-10-8-10-11-10-8----8--||---------------------------------------------------------10----||---------------------------------------------------------------||---------------------------------------------------------------||---------------------------------------------------------------|
|------------------------------------------------||------------------------------------------------||------------------------------------------------||------9-----10-----9-----10---------------------||------7-----8------7-----8---10-9-10--14-13-10--||--0-0---0-0----0-0---0-0-----8--7-8---12-11-8---|
| || ||------------------------------------------------||------------------------------------------------||------------------------------------------------||------------------------------------------------||------------------------------------------------||------------------------------------------------|
|---------------------------------------------------||---------------------------------------------------||---------------------------------------------------||------9-----10-----------------9-----10------------||------7-----8------------------7-----8-------------||--0-0---0-0----------------0-0---0-0---------------|
| || ||---------------------------------------------------||--17p12-12-12-13p12-12-12-17p12-12-12-13p12-12-12--||---------------------------------------------------||---------------------------------------------------||---------------------------------------------------||---------------------------------------------------|
|---------------------------------------------------||---------------------------------------------------||---------------------------------------------------||------9-----10----------------6p5------------------||------7-----8-------------------------8p7----------||--0-0---0-0---------------0-0-----0-0--------------|
| || ||---------------------------------------------------||--17p12-12-12-13p12-12-12-17p12-12-12-13p12-12-12--||---------------------------------------------------||---------------------------------------------------||---------------------------------------------------||---------------------------------------------------|
|-----------------------------------||-----------------------------------||-----------------------------------||------9-----10-------9-----10------||------7-----8--------7-----8-------||--0-0---0-0-----0-0---0-0----------|
| || ||-----------------------------------||--/17-17-------16p13h16p13/12-12\--||-----------------------------------||-----------------------------------||-----------------------------------||-----------------------------------|
Outro
|----------------------------------------||----------------------------------------||----------------------------------------||----------------------------------------||--10-9-10--14-13-10--10-9-10--14-13-10--||--8--7-8---12-11-8---8--7-8---12-11-8---|
| || ||----------------------------------------||----------------------------------------||----------------------------------------||----------------------------------------||--10-9-10--14-13-10--10-9-10--14-13-10--||--8--7-8---12-11-8---8--7-8---12-11-8---|
|----------------------------------||----------------------------------||----------------------------------||----------------------------------||--10-9-10--14-13-10--14-14-13-14--||--8--7-8---12-11-8---12-12-11-12--|
| || ||----------------------------------||----------------------------------||----------------------------------||----------------------------------||--10-9-10--14-13-10--14-14-13-14--||--8--7-8---12-11-8---12-12-11-12--|
Tap to rate this tab
 
# A B C D E F G H I J K L M N O P Q R S T U V W X Y Z