Behemoth - Rome 64 Ce tab

Behemoth
Rome 64 CE
Tabbed by: \m/Gaz

Tuning C# (C#F#BEG#C#)

Entire Song

|----------------------------------------------||----------------------------------------------||--9---7-10--7-9---13-12--9---7-10--7-9--5-8---||----------------------------------------------||--7---5-8---5-7---11-10--7---5-8---5-7--3-6---||----------------------------------------------|
| || ||----------------------------------------------||--10--8-11--8-10--14-13--10--8-11--8-10--6-9--||----------------------------------------------||--7---5-8---5-7---11-10--7---5-8---5-7---3-6--||----------------------------------------------||----------------------------------------------|
|----------------------------------------------||----------------------------------------------||--9---7-10--7-9---13-12--9---7-10--7-9--5-8---||----------------------------------------------||--7---5-8---5-7---11-10--7---5-8---5-7--3-6---||----------------------------------------------|
| || ||----------------------------------------------||--10--8-11--8-10--14-13--10--8-11--8-10--6-9--||----------------------------------------------||--7---5-8---5-7---11-10--7---5-8---5-7---3-6--||----------------------------------------------||----------------------------------------------|
|----------------------------------------------||----------------------------------------------||--9---7-10--7-9---13-12--9---7-10--7-9--5-8---||----------------------------------------------||--7---5-8---5-7---11-10--7---5-8---5-7--3-6---||----------------------------------------------|
| || ||----------------------------------------------||--10--8-11--8-10--14-13--10--8-11--8-10--6-9--||----------------------------------------------||--7---5-8---5-7---11-10--7---5-8---5-7---3-6--||----------------------------------------------||----------------------------------------------|
|----------------------------------------------||----------------------------------------------||--9---7-10--7-9---13-12--9---7-10--7-9--5-8---||----------------------------------------------||--7---5-8---5-7---11-10--7---5-8---5-7--3-6---||----------------------------------------------|
| || ||----------------------------------------------||--10--8-11--8-10--14-13--10--8-11--8-10--6-9--||----------------------------------------------||--7---5-8---5-7---11-10--7---5-8---5-7---3-6--||----------------------------------------------||----------------------------------------------|
|----------------------------------------------||----------------------------------------------||--9---7-10--7-9---13-12--9---7-10--7-9--5-8---||----------------------------------------------||--7---5-8---5-7---11-10--7---5-8---5-7--3-6---||----------------------------------------------|
| || ||----------------------------------------------||--10--8-11--8-10--14-13--10--8-11--8-10--6-9--||----------------------------------------------||--7---5-8---5-7---11-10--7---5-8---5-7---3-6--||----------------------------------------------||----------------------------------------------|
| || ||--<12>~~~~~~~~~~~~~~~~~~~~~~~~~~~~~~~~~~~~~~--||----------------------------------------------||----------------------------------------------||----------------------------------------------||----------------------------------------------||----------------------------------------------|
|----------------------------------------------||----------------------------------------------||--9---7-10--7-9---13-12--9---7-10--7-9--5-8---||----------------------------------------------||--7---5-8---5-7---11-10--7---5-8---5-7--3-6---||----------------------------------------------|
| || ||----------------------------------------------||--10--8-11--8-10--14-13--10--8-11--8-10--6-9--||----------------------------------------------||--7---5-8---5-7---11-10--7---5-8---5-7---3-6--||----------------------------------------------||----------------------------------------------|
| || ||--~~~~~~~~~~~~~~~~~~~~~~~~~~~~~~~~~~~~~~~~~~--||----------------------------------------------||----------------------------------------------||----------------------------------------------||----------------------------------------------||----------------------------------------------|
|----------------------------------------------||----------------------------------------------||----------------------------------------------||----------------------------------------------||--7~~~~~~~~~~~~~~~~~~~~~~~~~~~~~~~~~~~~~~~~~--||----------------------------------------------|
| || ||----------------------------------------------||----------------------------------------------||-----------------------------<9>--------------||----------------------------------------------||----------------------------------------------||----------------------------------------------|
| || ||--~~~~~~~~~~~~~~~~~~~~~~~~~~~~~~~~~~~~~~~~~~--||----------------------------------------------||----------------------------------------------||----------------------------------------------||----------------------------------------------||----------------------------------------------|
Tap to rate this tab
 
# A B C D E F G H I J K L M N O P Q R S T U V W X Y Z