Bella Morte – The End Ahead tab


			"The End Ahead"

			  Bella Morte
		   Bleed the Grey Skies Black

Tabbed by: John Moores


Tuning: Drop D (DADGBE)

Legend:  * = Palm Mute


Intro0:10|--------------------------------------------------||--------------------------------------------------||---------------------------5--5--5--5--8--8--8--8-||--3--3--3--3---6--6--6--6--5--5--5--5--8--8--8--8-| |--3--3--3--3---6--6--6--6--3--3--3--3--6--6--6--6-||--3--3--3--3---6--6--6--6-------------------------|
Verse0:26|--------------------------------------------------||--------------------------------------------------||--------------------------------------------------||--------------------------------------------------||--------------------------------------------------||--------------------------------------------------|
0:57|--------------------------------------------------||--------------------------------------------------||--5-5--5--5---------------------------------------||--5-5--5--5------6-6--6--6------------------------| |--3-3--3--3------6-6--6--6---6--5--3--------------||-----------------6-6--6--6------------------------|
x2|--------------------------------------------------||--------------------------------------------------||--5-5--5--5---------------------------------------||--5-5--5--5------6---------8----------------------| |--3-3--3--3------6---------8----------------------||-----------------6---------8----------------------|
Chorus1:19|--------------------------------------------------||--------------------------------------------------||---------------------------5--5--5--5--5--5--5--5-||--3--3--3--3---6--6--6--6--5--5--5--5--5--5--5--5-| |--3--3--3--3---6--6--6--6--3--3--3--3--3--3--3--3-||--3--3--3--3---6--6--6--6-------------------------|
|--------------------------------------------------||--------------------------------------------------||---------------------------5--5--5--5--8--8--8--8-||--3--3--3--3---6--6--6--6--5--5--5--5--8--8--8--8-| |--3--3--3--3---6--6--6--6--3--3--3--3--6--6--6--6-||--3--3--3--3---6--6--6--6-------------------------|
Verse 21:41|--------------------------------------------------||--------------------------------------------------||--------------------------------------------------||--------------------------------------------------||--------------------------------------------------||--------------------------------------------------|
2:02|--------------------------------------------------||--------------------------------------------------||--5-5--5--5---------------------------------------||--5-5--5--5------6-6--6--6------------------------| |--3-3--3--3------6-6--6--6---6--5--3--------------||-----------------6-6--6--6------------------------|
x2|--------------------------------------------------||--------------------------------------------------||--5-5--5--5---------------------------------------||--5-5--5--5------6---------8----------------------| |--3-3--3--3------6---------8----------------------||-----------------6---------8----------------------|
Chorus2:23|--------------------------------------------------||--------------------------------------------------||---------------------------5--5--5--5--5--5--5--5-||--3--3--3--3---6--6--6--6--5--5--5--5--5--5--5--5-| |--3--3--3--3---6--6--6--6--3--3--3--3--3--3--3--3-||--3--3--3--3---6--6--6--6-------------------------|
x2 |--------------------------------------------------||--------------------------------------------------||---------------------------5--5--5--5--8--8--8--8-||--3--3--3--3---6--6--6--6--5--5--5--5--8--8--8--8-| |--3--3--3--3---6--6--6--6--3--3--3--3--6--6--6--6-||--3--3--3--3---6--6--6--6-------------------------|
Breakdown3:04|--------------------------------------------------||--------------------------------------------------||--------------------------------------------------||--3-----------------------------------------------||--3-----------------------------------------------||--3-----------------------------------------------|
Over the top of the held chord3:06|----8----6----------/8-------6--------------------||------------/9--8-----------------9----8-----8\6--||--------------------------------------------------||--------------------------------------------------||--------------------------------------------------||--------------------------------------------------|
|--------------------------------------------------||---8-----6~~---------6--6~---8------/6--8--8h9p8--||------8-------8----8-------------8----------------||--------------------------------------------------||--------------------------------------------------||--------------------------------------------------|
3:49|--------------------------------------------------||--------------------------------------------------||---------------------------5--5--5--5--5--5--5--5-||--3--3--3--3---6--6--6--6--5--5--5--5--5--5--5--5-| |--3--3--3--3---6--6--6--6--3--3--3--3--3--3--3--3-||--3--3--3--3---6--6--6--6-------------------------|
x2 |--------------------------------------------------||--------------------------------------------------||---------------------------5--5--5--5--8--8--8--8-||--3--3--3--3---6--6--6--6--5--5--5--5--8--8--8--8-| |--3--3--3--3---6--6--6--6--3--3--3--3--6--6--6--6-||--3--3--3--3---6--6--6--6-------------------------|
4:30|--------------------------------------------------||--------------------------------------------------||--------------------------------------------------||--3--3--3--3---3--3--3--3--3--3--3--3--3--3--3--3-| |--3--3--3--3---3--3--3--3--3--3--3--3--3--3--3--3-||--3--3--3--3---3--3--3--3--3--3--3--3--3--3--3--3-| * * * * * * * * * * * * * * * *
4:41|--------------------------------------------------||--------------------------------------------------||--------------------------------------------------||--3-----------------------------------------------||--3-----------------------------------------------||--3-----------------------------------------------|
http://www.bellamorte.com/
Please rate this tab:
x1.0