Belvedere - Closed Doors tab

Closed Doors
Belvedere
FFETT
Bass Tab by: Glau glau - glausong´s
Intro

F-----------9-----------------12---------------------------|C------10----10-------10-------10---------- X 4-|G--12--------------12-------------- -----------------------|D----------------------------------------------------------|
------------------------------------------------5------7--|-----------------------------------3--3--5h7--7p5---5h7---|-----88888-7777-3-00-3h5---5------------------------------|----------------------------------------------------------| X1
------------------------------------------------5------7--|-----------------------------------3--3--5h7--7p5---5h7---|-----88888-7777-5----00-3h5---5---------------------------| X1--------------------------3-------------------------------|
------------------------------------------------5------7--|-----------------------------------3--3--5h7--7p5---5h7---| X1-----88888-7777-3-00-3h5---5------------------------------|----------------------------------------------------------|
--------------------------------------------------------|--------------------------------------------------------|-----88-77-55-3-55-33-2---------------------------------| X1----------------------------------3---------------------|
Verse
-----------------77777777-77777-55555--------------------------------------|-----------------55555555-55555-33333-55555-77777--------------------------|-00000000-------------------------------------33333-55555------------------| X1---------------------------------------------------------------------------|
-----------------4h5--000000-7-5-0-5-4-0-4-5-------------------------------------------------------------|----------------------7----------------------------------55555555-333333-2-0-----------------------------|-00000000---------------------------------------------------------------------------3333333-5555 X 1--|---------------------------------------------------------------------------------------------------------|
Pre Chorus
---3p2---------3p2-------------3p2----------------------------------|---------3-------------3-----------------3-------------- X 1-|-----------000----------1-1-----------------------------------------|-----------------------------------------------1111111--------------|
---3p2---------3p2-------------3p2----------------------------------|---------3-------------3-----------------3-------------- X 1-|-----------000----------1-1-----------------------------------------|-----------------------------------------------1111-0000------------|
---3p2---------3p2-------------3p2----------------------------------|---------3-------------3-----------------3-------------- X 1-|-----------000----------1-1-----------------------------------------|-----------------------------------------------1111111--------------|
---3p2---------3p2-------------3p2----------------------------------|---------3-------------3-----------------3-------------- X 1-|-----------000----------1-1-----------------------------------------|-----------------------------------------------1111-3333------------|
Chorus
--------------------------------------------------------------------------|-------------------------333333-2-0---------------------------------------|-----00000-----------------------------333-2-0----------55555-------------| X1---------------33333--------------------------------3333-----------33333--|
Tap to rate this tab
 
# A B C D E F G H I J K L M N O P Q R S T U V W X Y Z