Ben Gibbard - Overture tab

|-------------------------------------------||-------10------------------10--------------||----------7/4--------------------7---------||--0-----------------0----------------------||-------------------------------------------||-------------------------------------------|
|--------------------------------------------------------||--------------------------------------------------------||--------2------2------------------2------2------9--7----||--0--5-----5------5---------0--5-----5------5-----------||--------------------------------------------------------||--------------------------------------------------------|
|--------------------------------------------||-------8-----------------8------------------||---------7/4------------------7-------------||--0---------------0-------------------------||--------------------------------------------||--------------------------------------------|
|--------------------------------------------------------||--------------------------------------------------------||--------2------2------------------2------2------9--7----||--0--5-----5------5---------0--5-----5------5-----------||--------------------------------------------------------||--------------------------------------------------------|
|-------------------------------------------||-------10------------------10--------------||----------7/4--------------------7---------||--0-----------------0----------------------||-------------------------------------------||-------------------------------------------|
|--------------------------------------------------------||--------------------------------------------------------||--------2------2------------------2------2------9--7----||--0--5-----5------5---------0--5-----5------5-----------||--------------------------------------------------------||--------------------------------------------------------|
|--------------------------------------------||-------8-----------------8------------------||---------7/4------------------7-------------||--0---------------0-------------------------||--------------------------------------------||--------------------------------------------|
|--------------------------------------------------------||--------------------------------------------------------||--------2------2------------------2------2------7-------||--0--5-----5------5---------0--5-----5------5-----------||--------------------------------------------------------||--------------------------------------------------------|
|-------------3----5----7-------||--0----3-----------------------||-------------------------------||-------------------------------||-------------------------------||-------------------------------|
Pretty much the same thing over again. REMEMBER: HALF STEP DOWN THANK YOU
Tap to rate this tab
 
# A B C D E F G H I J K L M N O P Q R S T U V W X Y Z