Ben Harper - The Woman In You tab

THE WOMAN IN YOU
BEN HARPER
BURN TO SHINE
TRANSCRIBED BY ALIOSCIA

INTRO

|---------------------------|---------------------------| |------^3-----2-3-2h3p2-----|---------------------^10-8-| |------^2-----2---------2---|----------7-7h9p7----^7----| |------^4--0-2------------0-|------7h9-7-7-----9--^9----| |-2-------------------------|5/7---7--------------------| |---------------------------|----0----------------------|
VERSE X 4
|---------------------------|---------------------------| |------^3-----2-3-2h3p2-----|---------------------^10-8-|.|------^2-----2---------2---|----------7-7h9p7----^7----|.|------^4--0-2------------0-|------7h9-7-7-----9--^9----| |0h2-2----------------------|5/7---7--------------------| |---------------------------|----0----------------------|
|---------------------------|---------------------------| |------^3-----2-3-2h3p2-----|---------------------^8--8-| |------^2-----2---------2---|----------7-7h9p7----^7----|. |------^4--0-2------------0-|------7h9-7-7-----9--^7----|. |0h2-2----------------------|5/7---7--------------------| |---------------------------|----0----------------------|
|---------------------------|---------------------------| |------^3-----2-3-2h3p2-----|---------------------^10-8-| |------^2-----2---------2---|----------7-7h9p7----^7----| |------^4--0-2------------0-|------7h9-7-7-----9--^9----| |0h2-2----------------------|5/7---7--------------------| |---------------------------|----0----------------------|
CHORUS
|------^2----------0----0-0-|------0--0--2-2--2-2--2----| |------^3-------0--0----0-0-|------3--3--2-2--2-2--2----| |------^4-------1--1----1-1-|------0--0--2-2--2-2--2----| |------^4---0H2----2----2-2-|------0--0--2-2--2-2--2----| |0h2-2-------------0----0-0-|------2--2---------------2-| |---------------0--0----0-0-|-3-3--3--3-----------------|
|-2-2--2-----------0----0-0-|------0--0--2-2--2-2--2----| |-3-3--2h3------0--0----0-0-|------3--3--2-2--2-2--2----| |-4-4--2h4------1--1----1-1-|------0--0--2-2--2-2--2----| |-4-4--2h4--0H2----2----2-2-|------0--0--2-2--2-2--2----| |-2-2--2-----------0----0-0-|------2--2---------------2-| |---------------0--0----0-0-|-3-3--3--3-----------------|
|---------------------------|---------------------------| |------^3-----2-3-2h3p2-----|---------------------^10-8-| |------^2-----2---------2---|----------7-7h9p7----^7----| |------^4--0-2------------0-|------7h9-7-7-----9--^9----| |---------------------------|5/7---7--------------------| |---------------------------|----0----------------------|
|---------------------------|---------------------------| |------^3-----2-3-2h3p2-----|---------------------^8--8-| |------^2-----2---------2---|----------7-7h9p7----^7----| |------^4--0-2------------0-|------7h9-7-7-----9--^7----| |0h2-2----------------------|5/7---7--------------------| |---------------------------|----0----------------------|
VERSE X 3
|---------------------------|---------------------------| |------^3-----2-3-2h3p2-----|---------------------^10-8-|.|------^2-----2---------2---|----------7-7h9p7----^7----|.|------^4--0-2------------0-|------7h9-7-7-----9--^9----| |0h2-2----------------------|5/7---7--------------------| |---------------------------|----0----------------------|
|---------------------------|---------------------------| |------^3-----2-3-2h3p2-----|---------------------^8--8-| |------^2-----2---------2---|----------7-7h9p7----^7----|. |------^4--0-2------------0-|------7h9-7-7-----9--^7----|. |0h2-2----------------------|5/7---7--------------------| |---------------------------|----0----------------------|
|---------------------------|---------------------------| |------^3-----2-3-2h3p2-----|---------------------^10-8-| |------^2-----2---------2---|----------7-7h9p7----^7----| |------^4--0-2------------0-|------7h9-7-7-----9--^9----| |0h2-2----------------------|5/7---7--------------------| |---------------------------|----0----------------------|
CHORUS
|------^2----------0----0-0-|------0--0--2-2--2-2--2----| |------^3-------0--0----0-0-|------3--3--2-2--2-2--2----| |------^4-------1--1----1-1-|------0--0--2-2--2-2--2----| |------^4---0H2----2----2-2-|------0--0--2-2--2-2--2----| |0h2-2-------------0----0-0-|------2--2---------------2-| |---------------0--0----0-0-|-3-3--3--3-----------------|
|-2-2--2-----------0----0-0-|------0--0--2-2--2-2--2----| |-3-3--2h3------0--0----0-0-|------3--3--2-2--2-2--2----| |-4-4--2h4------1--1----1-1-|------0--0--2-2--2-2--2----| |-4-4--2h4--0H2----2----2-2-|------0--0--2-2--2-2--2----| |-2-2--2-----------0----0-0-|------2--2---------------2-| |---------------0--0----0-0-|-3-3--3--3-----------------|
|-2-2--2-----------0----0-0-|------0--0--2-2--2-2--2----| |-3-3--2h3------0--0----0-0-|------3--3--2-2--2-2--2----| |-4-4--2h4------1--1----1-1-|------0--0--2-2--2-2--2----| |-4-4--2h4--0H2----2----2-2-|------0--0--2-2--2-2--2----| |-2-2--2-----------0----0-0-|------2--2--------------0/7| |---------------0--0----0-0-|-3-3--3--3-----------------|
BREAK X 3
|--0--0--0-0-0-0-0---0-0-0--|--0--0--0-0-0-0-0-0-0--0---| |--0--0--0-0-0-0-0---0-0-0--|--0--0--0-0-0-0-0-0-0--0---|.|--1--1--1-1-4-4-4/6-6-4-4--|--1--1--1-1-6-6-6-6-6--4---|.|--2--2--2-2-5-5-5/7-7-5-5--|--2--2--2-2-7-7-7-7-7--5---| |--2--2--2-2-5-5-5/7-7-5-5--|--2--2--2-2-7-7-7-7-7--5---| |--0--0--0-0-0-0-0---0-0-0--|--0--0--0-0-0-0-0-0-0--0---|
|--0--0--0-0-0-0-0---0-0-0--|--0--0--------0-0-0-0--0---| |--0--0--0-0-0-0-0---0-0-0--|--0--0--------0-0-0-0--0---| |--1--1--1-1-4-4-4/6-6-4-4--|--1--1--(1)/6-6-6-6-6--6---|. |--2--2--2-2-5-5-5/7-7-5-5--|--2--2--(2)/7-7-7-7-7--7---|. |--2--2--2-2-5-5-5/7-7-5-5--|--2--2--(2)/7-7-7-7-7--7---| |--0--0--0-0-0-0-0---0-0-0--|--0--0--------0-0-0-0--0---|
STOP X 1 .........................................................
|---------------------------|---------------------------| |------^3-----2-3-2h3p2-----|---------------------^8--8-| |------^2-----2---------2---|----------7-7h9p7----^7----| |------^4--0-2------------0-|------7h9-7-7-----9--^7----| |0h2-2----------------------|5/7---7--------------------| |---------------------------|----0----------------------|
|---------------------------|---------------------------| |------^3-----2-3-2h3p2-----|---------------------^10-8-| |------^2-----2---------2---|----------7-7h9p7----^7----| |------^4--0-2------------0-|------7h9-7-7-----9--^9----| |0h2-2----------------------|5/7---7--------------------| |---------------------------|----0----------------------|
|---------------------------|---------------------------| |------^3-----2-3-2h3p2-----|---------------------^8--8-| |------^2-----2---------2---|----------7-7h9p7----^7----| |------^4--0-2------------0-|------7h9-7-7-----9--^7----| |0h2-2----------------------|5/7---7--------------------| |---------------------------|----0----------------------|
|---------------------------|---------------------------| |---------------------------|---------------------------| |---------------------------|---------------------------| |---------------------------|---------------------------| |0h2-------0----------------|---------------------------| |---------------------------|----0----------------------|
CHORUS
|------^2----------0----0-0-|------0--0--2-2--2-2--2----| |------^3-------0--0----0-0-|------3--3--2-2--2-2--2----| |------^4-------1--1----1-1-|------0--0--2-2--2-2--2----| |------^4---0H2----2----2-2-|------0--0--2-2--2-2--2----| |0h2-2-------------0----0-0-|------2--2---------------2-| |---------------0--0----0-0-|-3-3--3--3-----------------|
|-2-2--2-----------0----0-0-|------0--0--2-2--2-2--2----| |-3-3--2h3------0--0----0-0-|------3--3--2-2--2-2--2----| |-4-4--2h4------1--1----1-1-|------0--0--2-2--2-2--2----| |-4-4--2h4--0H2----2----2-2-|------0--0--2-2--2-2--2----| |-2-2--2-----------0----0-0-|------2--2---------------2-| |---------------0--0----0-0-|-3-3--3--3-----------------|
|-2-2--2-----------0----0-0-|------0--0--2-2--2-2--2----| |-3-3--2h3------0--0----0-0-|------3--3--2-2--2-2--2----| |-4-4--2h4------1--1----1-1-|------0--0--2-2--2-2--2----| |-4-4--2h4--0H2----2----2-2-|------0--0--2-2--2-2--2----| |-2-2--2-----------0----0-0-|------2--2--------------0/7| |---------------0--0----0-0-|-3-3--3--3-----------------|
BREAK X 8 OUTRO
|--0--0--0-0-0-0-0---0-0-0--|--0--0--0-0-0-0-0-0-0--0---| |--0--0--0-0-0-0-0---0-0-0--|--0--0--0-0-0-0-0-0-0--0---|.|--1--1--1-1-4-4-4/6-6-4-4--|--1--1--1-1-6-6-6-6-6--4---|..|--2--2--2-2-5-5-5/7-7-5-5--|--2--2--2-2-7-7-7-7-7--5---|. |--2--2--2-2-5-5-5/7-7-5-5--|--2--2--2-2-7-7-7-7-7--5---| |--0--0--0-0-0-0-0---0-0-0--|--0--0--0-0-0-0-0-0-0--0---|
Tap to rate this tab
 
# A B C D E F G H I J K L M N O P Q R S T U V W X Y Z