Bert Jansch - A Woman Like You tab

Title: A woman Like You
Artist: Bert Jansch
Instructions: DADGAD Tuning
Tempo = 90
Steel Guitar


I found this by luck a few years ago buried in a web site that did not index so you 
can't find it by looking for it.  I

lost the file but luckily found a copy that I had printed out, so I tabbed it in guitar 
pro and exported a ASCII version.

It has issues, but what tabs don't.

Let me know if you have any corrections and I will update it and repost.

you can reach me at ttango54@gmail.com

good luck

Tim


Legend
L - tied note
x - dead note
h - hammer on/pull off
b - bend
s - slide
~ - vibrato
g - ghost note
> - accentuated note
t - trill
M - palm mute
. - staccato
P - popping (bass)
S - slapping (bass)
+ - tapping
W - wide vibrato
< - fade in
w - whammy bar
= - tremolo picking
v - brush up
^ - brush down
V - pick stroke up
n - pick stroke down


D |----------------------------|--------------0-------------|A |----------------------------|-----0--------------0-------|G |----------------------------|--------2-----0-------------|D |----------------------------|--3s-4-----4--------4-------|A |----------------------------|----------------------------|D |-----------------------0----|-----------------0-----0----|
----------------------------------------------------------------------------|-----------------------------------------------------------3----------------|--0-----------------------------------------------------4-----4-------------|----------------------------------------------------------------------------|--3--------------------------3~-------------------------2-------------------|--------------------0--------------------------0----------------------------|
v ^ ^ v ^ ^--------------------------0-----------0-----0-------|-----------0--0-----------0--------0--0-----0-------|--2--------2--2-----------2--------2--2-----2-------|--------------0-----------0-----------0-----0-------|--0-------------------------------------------------|-----------------------------------------------0----|
--------------0-------------|--0-----------------0-------|--------2-----0-------------|--3s-4-----4--------4-------|----------------------------|-----------------0-----0----|
----------------------------------------------------------------------------|-----------------------------------------------------------3----------------|--0-----------------------------------------------------4-----4-------------|----------------------------------------------------------------------------|--3--------------------------3~-------------------------2-------------------|--------------------0--------------------------0----------------------------|
v ^ ^ v ^ ^--------------------------0-----------0-----0-------||-----------0--0-----------0--------0--0-----0-------||--2--------2--2-----------2--------2--2-----2-------||--------------0-----------0-----------0-----0-------||--0-------------------------------------------------||-----------------------------------------------0----||
^ v ^ v v-------0--0--------------0--0-----0----------------|-------0--0--------------0--0-----0----------------|o0-----------2-----0-------------------------------|o------------------------------3-----0-------------|-------------------------------------------3-------|---------------------------------------------------|
^ v ^ v v--------0--0--------------0--0-----0----------------|--------0--0--------------0--0-----0----------------|--0-----------2-----0-------------------------------|--------------------------------3-----0-------------|--------------------------------------------3-------|----------------------------------------------------|
^ v--------0--0--------------0--0--------------2-------|--------0--0--------0h-3--------------3-------------|--0-----------2-----------------2-----------2-------|----------------------------------------------------|----------------------------------------------------|----------------------------------------------------|
--0-----------------------------------------------------------------------------|-----------------------------3--------------------------------------------0-----|--0-----------------------------------------------------------------------------|--------------------------------------3-----------------------------------0-----|--------------------------------------------------------------------------------|--------------------------------------------------------------------------------|
v ^------------0-----0--------------------0----------------------------|------------0-----0--------------------0----------------------------|------------2-----2-----------0-------------------------------------|------------------------------------------------3-------------------|--------------------------------------------------------------------|--------------------------------------------------------------------|
^ v ^ v v--------0--0--------------0--0-----0----------------|--------0--0--------------0--0-----0----------------|----------------------------------------------------|--0-----------------0-----------2-----2h-3--2-------|--------------3-------------------------------------|----------------------------------------------------|
^ v ^ v--------0--0--------------0--0-----0----------------|--------0--0--------------0--0-----0----------------|----------------------------------------------------|--0-----------------0-----------------0-------------|--------------3-----------------3-------------------|--------------------------------------------0-------|
--------------0-------------|-----0--------------0-------|--------2-----0-------------|--3s-4-----4--------4-------|----------------------------|-----------------0-----0----|
----------------------------------------------------------------------------|-----------------------------------------------------------3----------------|--0-----------------------------------------------------4-----4-------------|----------------------------------------------------------------------------|--3--------------------------3~-------------------------2-------------------|--------------------0--------------------------0----------------------------|
^ ^ v--------------------0--------0----------------------|-----------0--0-----0--------0-----------0----------|--2--------2--2-----2--------2--------5-------------|--------------0-----0-----------------------0-------|--0-----------------------------------3-------------|--------------------------------0-------------------|
v ^ ^ v ^ ^--------------------------0-----------0-----0-------|-----------0--0-----------0--------0--0-----0-------|--2--------2--2-----------2--------2--2-----2-------|--------------0-----------0-----------0-----0-------|--0-------------------------------------------------|-----------------------------------------------0----|
--------------0-------------|-----0--------------0-------|--------2-----0-------------|--3s-4-----4--------4-------|----------------------------|-----------------0-----0----|
----------------------------------------------------------------------------|-----------------------------------------------------------3----------------|--0-----------------------------------------------------4-----4-------------|----------------------------------------------------------------------------|--3--------------------------3~-------------------------2-------------------|--------------------0--------------------------0----------------------------|
^ ^ v--------------------0--------0----------------------|-----------0--0-----0--------0-----------0----------|--2--------2--2-----2--------2--------5-------------|--------------0-----0-----------------------0-------|--0-----------------------------------3-------------|--------------------------------0-------------------|
v ^ ^ v ^ ^--------------------------0-----------0-----0------|||-----------0--0-----------0--------0--0-----0------|||--2--------2--2-----------2--------2--2-----2-----o|||--------------0-----------0-----------0-----0-----o|||--0------------------------------------------------|||-----------------------------------------------0---|||
Tap to rate this tab
 
# A B C D E F G H I J K L M N O P Q R S T U V W X Y Z