Between The Buried And Me - Lost Perfections A And B tab

-------------------------------------------------|-------------------------------------------------|-------------------------------------------------|-------------------------------------------------|-------------------------------------------------|--11--0-0-0--11--0-0-0--10--10--10--10--110--10--|
--------------------------------------------------------------------|--------------------------------------------------------------------|--------------------------------------------------------------------|--------------------------------------------------------------------|-------------10-10-10-10-10-10--------------------------------------|--11--0-0-0--------------------10-10-10-110-10-10-11-11-11-11-11-11-|
-------------------------------------------------|-------------------------------------------------|-------------------------------------------------|-------------------------------------------------|-------------------------------------------------|--11--0-0-0--11--0-0-0--10--10--10--10--110--10--|
-------------------------------------|-------------------------------------|-------------------------------------|-------------------------------------|--1--1--1--1--1--1--1--1--1--1--1--1-|--1--1--1--1--1--1--1--1--1--1--1--1-|
-------------------------------------------------|-------------------------------------------------|-------------------------------------------------|-------------------------------------------------|-------------------------------------------------|--11--0-0-0--11--0-0-0--10--10--10--10--110--10--|
--------------------------------------------------------------------|--------------------------------------------------------------------|--------------------------------------------------------------------|--------------------------------------------------------------------|-------------10-10-10-10-10-10--------------------------------------|--11--0-0-0--------------------10-10-10-110-10-10-11-11-11-11-11-11-|
-------------------------------------------------|-------------------------------------------------|-------------------------------------------------|-------------------------------------------------|-------------------------------------------------|--11--0-0-0--11--0-0-0--10--10--10--10--110--10--|
---------------------------------------------------------------------------|---------------------------------------------------------------------------|---------------------------------------------------------------------------|---------------------------------------------------------------------------|--10-10-10-10-10-10-11-11-10-10-10-10-10--10-10-10-10-10-10-10-10-10-10-10-|---------------------------------------------------------------------------|
-------------------------------------------------|-------------------------------------------------|-------------------------------------------------|-------------------------------------------------|-------------------------------------------------|--11--0-0-0--11--0-0-0--10--10--10--10--110--10--|
--------------------------------------------------------------------|--------------------------------------------------------------------|--------------------------------------------------------------------|--------------------------------------------------------------------|-------------10-10-10-10-10-10--------------------------------------|--11--0-0-0--------------------10-10-10-110-10-10-11-11-11-11-11-11-|
-------------------------------------------------|-------------------------------------------------|-------------------------------------------------|-------------------------------------------------|-------------------------------------------------|--11--0-0-0--11--0-0-0--10--10--10--10--110--10--|
--------------------------------|--------------------------------|--------------------------------|--3---------------6------9------|--3------4--3-----4------7------|--1------4--3--1--4------7------|
-------------------------------------------------|-------------------------------------------------|-------------------------------------------------|-------------------------------------------------|-------------------------------------------------|--11--0-0-0--11--0-0-0--10--10--10--10--110--10--|
-------------------------------------|-------------------------------------|-------------------------------------|-------------------------------------|--1--1--1--1--1--1--1--1--1--1--1--1-|--1--1--1--1--1--1--1--1--1--1--1--1-|
-------------------------------------------------|-------------------------------------------------|-------------------------------------------------|-------------------------------------------------|-------------------------------------------------|--11--0-0-0--11--0-0-0---------------------------|
---------------------------------------------------10------11--------------|----------10------11----------13------11-----------------------------------|---------------------------------------------------------------------14--12|------12------12----------12------12-----------12------12---------12-------|--10------------------10-------------------10-----------------10-----------|---------------------------------------------------------------------------|
---------------------------------------------------14------15---------------|-----------------------------17------15-----------------------------14------|----18------19-----------------------------------------------------14-------|------16------16----------16------16-----------16------16----------16-------|--14------------------14-------------------14------------------14-----------|----------------------------------------------------------------------------|
-------------------------------------------------------------------|--------------12------------------10----112----13------------------|--12----14--------------11----12-------------------11----12----14--|------------------14-----------------------------------------------|-------------------------------------------------------------------|-------------------------------------------------------------------|
--------------------------------------------------------10--14--10---------|------------------------------------------------14------------------10-----|---------13------14---------16------14-------------------------------------|-----11------11---------11------11----------11------11-----------------12--|--9------------------9------------------99---------------------------------|---------------------------------------------------------------------------|
------------------------------------------------13-----------12--------------|---------------------------------8-----------15----15------------13--12------|----------9--7--10--9--9--10--9-----------15----------15----------------12---|--12--12----------------------------12-------------------12------------------|-----------------------------------------------------------------------------|-----------------------------------------------------------------------------|
-----------------------------------------------------------------------------|---------------------------------------------------15------16----------------|----------14------15----------17------15---------------------------15-14--12-|------12------12----------12------12-----------12------12----------12--------|--10------------------10-------------------10------------------10------------|-----------------------------------------------------------------------------|
---------------------------------------------------14------15----------------|------------------------------17------15------------------------15-----14----|----------18------19------------------------------------------------------14-|------16------16----------16------16-----------16------16----------16--------|--14------------------14-------------------14------------------14------------|-----------------------------------------------------------------------------|
-------------------------------------------------------------------|--------------12------------------10----112----13--------------10--|--12----14--------------11----12-------------------11----12--------|------------------14-----------------------------------------------|-------------------------------------------------------------------|-------------------------------------------------------------------|
--------------------------------------------------------10--14--10-----------|------------------------------------------------14------------------10-------|---------13------14---------16------14----------------------------------14---|-----11------11---------11------11----------11------11-------------------12--|--9------------------9------------------99-----------------------------------|-----------------------------------------------------------------------------|
------------------------------------------------13-----------12--------------|---------------------------------8-----------15----15------------13--12--12--|----------9--7--10--9--9--10--9-----------15----------15----------------12---|--12--12----------------------------12-------------------12------------------|-----------------------------------------------------------------------------|-----------------------------------------------------------------------------|
----------------------------------------------|----------------------------------------------|----------------------------------------------|----------------7-10-------------------155-18-|------------6-9------------------14-17--------|--------5-8----------------13-16--------------|
--------------------------------------------------------------------|--------------------------------------------------------------------|--------------------------------------------------------------------|--------------------------------------------------------5-8---------|----------------------------------------------------4-7---------5-8-|--8-4-9-5-7-3-8-4-9-5-7-3-8-4-7-3-8-4-9-55-10-6-3-6---------4-7-----|
---------------------------------------------------------------------------|---------------------------------------------------------------------------|---------------------------------------------------------------------------|--6-9-----------------------------------------------------------12-15------|----------------------------------------------------------11-14------------|------8-4-9-5-7-3-8-4-9-5-7-3-8-4-7-3-8-44-9-5-10-6-10-13-------------11-14|
--------------|--------------------------------------------------------|--------------|--------------------------------------------------------|--------------|--------------------------------------------------------|--------13-16-|---------------------------------10--8b-----------------|--12-15-------|--------5-6-5-4-5-4-3-4-3--8--7---------3--3--3-3--3--3-|--------------|--3-4-3---------------------------------1--1--1-1--1--1-|
--------------------------------------------------------------------|--------------------------------------------------------------------|--------------------------------------------------------------------|--------------------------------------------------------5-8---------|----------------------------------------------------4-7---------5-8-|--8-4-9-5-7-3-8-4-9-5-7-3-8-4-7-3-8-4-9-55-10-6-3-6---------4-7-----|
---------------------------------------------------------------------------|---------------------------------------------------------------------------|---------------------------------------------------------------------------|--6-9----------------------------------------------------------12-15-------|---------------------------------------------------------11-14-------------|------8-4-9-5-8-4-9-5-7-4-8-4-9-5-8-4-7-33-9-5-8-4-10-13-------------11-14-|
--------------|--------------------------------------------------------|--------------|--------------------------------------------------------|--------------|--------------------------------------------------------|--------13-16-|---------------------------------10--8b-----------------|--12-15-------|--------5-6-5-4-5-4-3-4-3--8--7---------3--3--3-3-3-3-3-|--------------|--3-4-3---------------------------------1--1--1-1-1-1-1-|
-----------------------------------------------------------------------|-----------------------------------------------------------------------|-----------------------------------------------------------------------|-----------------------------------------------------------------------|--2--2--2----------2--2--2--2--2--2-----------2--2--2----------6h7h6h7-|--0--0--0--6h7h6h7-0--0--0--0--0--0--6h7hh6h7-0--0--0--6h7h6h7---------|
-----------------------------------------------------------------------|-----------------------------------------------------------------------|-----------------------------------------------------------------------|-----------------------------------------------------------------------|--2--2--2----------2--2--2--2--2--2-----------2--2--2----------6-7-6-7-|--0--0--0--6-7-6-7-0--0--0--0--0--0--6-7--6-7-0--0--0--6-7-6-7---------|
-----------------------|------------------------|-----------------------|-----------------------|------------------------|-----------------------|-----------------------|------------------------|-----------------------|-----------------------|------------------------|-----------------------|--2--2--2--------------|--2--2--2---------------|--2--2--2--------------|--0--0--0--------------|--0--0--0---------------|--0--0--0--------------|
---------------------------|---------------------------|---------------------------|---------------------------|--2--2--2----------6-7-6-7-|--0--0--0--6-7-6-7---------|
-----------------------------------------------------------------------|-----------------------------------------------------------------------|-----------------------------------------------------------------------|-----------------------------------------------------------------------|--2--2--2----------2--2--2--2--2--2-----------2--2--2----------6-7-6-7-|--0--0--0--6-7-6-7-0--0--0--0--0--0--6-7--6-7-0--0--0--6-7-6-7---------|
---------------------------------------------------------------------------|---------------------------------------------------------------------------|---------------------------------------------------------------------------|---------------------------------------------------------------------------|--2--2--2--2--2--2--2--2--2--2--2--2--2---2--2--2--2--2--2--2--2--2--2--2--|--0--0--0--0--0--0--0--0--0--0--0--0--0---0--0--0--0--0--0--0--0--0--0--0--|
---------------------------------------------------|---------------------------------------------------|---------------------------------------------------|---------------------------------------------------|--2--2--2--2--2--2--2--2--2--2--2--2--2---2--2--2--|--0--0--0--0--0--0--0--0--0--0--0--0--0---0--0--0--|
---------------------------------------------------|---------------------------------------------------|---------------------------------------------------|---------------------------------------------------|--2--2--2--2--2--2--2--2--2--2--2--2--2---2--2--2--|--0--0--0--0--0--0--0--0--0--0--0--0--0---0--0--0--|
---------------------------------------------|---------------------------------------------|---------------------------------------------|---------------------------------------------|--2--3--4--3--2--2--2--2--3--4--3--2--2---2--|--2--3--4--3--0--0--0--2--3--4--3--0--0---0--|
---------------------------------------------|---------------------------------------------|---------------------------------------------|---------------------------------------------|--2--3--4--3--2--2--2--2--2--2--2--3--4---3--|--2--3--4--3--0--0--0--0--0--0--2--3--4---3--|
---------------------------------------------|---------------------------------------------|---------------------------------------------|---------------------------------------------|--2--3--4--3--2--2--2--2--3--4--3--2--2---2--|--2--3--4--3--0--0--0--2--3--4--3--0--0---0--|
---------------------------------------------|---------------------------------------------|---------------------------------------------|---------------------------------------------|--2--3--4--3--2--2--2--2--2--2--2--3--4---3--|--2--3--4--3--0--0--0--0--0--0--2--3--4---3--|
---------------------------------------------|---------------------------------------------|---------------------------------------------|---------------------------------------------|--2--3--4--3--2--2--2--2--3--4--3--2--2---2--|--2--3--4--3--0--0--0--2--3--4--3--0--0---0--|
---------------------------------------------|---------------------------------------------|---------------------------------------------|---------------------------------------------|--2--3--4--3--2--2--2--2--2--2--2--3--4---3--|--2--3--4--3--0--0--0--0--0--0--2--3--4---3--|
---------------------------------------------|---------------------------------------------|---------------------------------------------|--3--5--6--5-----------4--5--6--5------------|--2--3--4--3--2--2--2--2--3--4--3--2--2---2--|--2--3--4--3--0--0--0--2--3--4--3--0--0---0--|
Tap to rate this tab
 
# A B C D E F G H I J K L M N O P Q R S T U V W X Y Z