Between The Buried And Me - Informal Gluttony tab

A pretty intense song off of Between the Buried and Me's latest album "Colors" coming out tommorow.

Transcribed by Clucifer (Brew Crew)

This is my first tab submitted on the Internet.
If you have any questions E-mail me at pennywisex007@aol.com
Not a 100% accurate but hey I tried.....Enjoy

Tablature Legend
----------------
 h   - hammer-on
 p   - pull-off
 b   - bend
 pb  - pre-bend
 r   - bend release (if no number after the r, then release immediately)
 /\  - slide into or out of (from/to "nowhere")
 s   - legato slide
 S   - shift slide
 *   - natural harmonic
[n]  - artificial harmonic
n(n) - tapped harmonic
 ~   - vibrato
 tr  - trill
 T   - tap
 TP  - trem. picking
 PM  - palm muting
\n/  - tremolo bar dip; n = amount to dip
 \n  - tremolo bar down
 n/  - tremolo bar up
/n\  - tremolo bar inverted dip
 =   - hold bend; also acts as connecting device for hammers/pulls
 <>  - volume swell (louder/softer)
 x   - on rhythm slash represents muted slash
 o   - on rhythm slash represents single note slash

Misc Legend
-----------
 |  - bar
||  - double bar
||o - repeat start
o|| - repeat end
*|  - double bar (ending)
 :  - bar (freetime)
 $  - Segno
 &  - Coda


                           -Intro x4(Guitar I)-

|---------------------------------------------------10----------------------|-o----------------10-12-13-12-------------10-12-13---------13-12h13p12--||---------9-10-13-----------------9-10-13------------------------------------------------------------------------------------------------------------||----------------------------------------------------------------------------------------------------------------------------------------------------||-o--------------------------------------------------------------------------------------------------------------------------------------------------||----------------------------------------------------------------------------------------------------------------------------------------------------|
|---------------------------------------------------------------------------||----10h12p10-------10------------------------------------------------------||-------------13-------13-10-13b--------------------------------------------||---------------------------------------------------------------------------||---------------------------------------------------------------------------||---------------------------------------------------------------------------|
-Intro x2(Guitar II)- (Comes in after 2nd time)
|------------------------------------------------10-------------------------||-----------12-10-12-13-12-----------12-10-12-13-------13-12h13p12----------||-----9-10----------------------9-10----------------------------------------||---------------------------------------------------------------------------||---------------------------------------------------------------------------||---------------------------------------------------------------------------|
|---------------------------------------------------------------------------||---10h12p10-------10-------------------------------------------------------||------------13-------13-10-13b-----------------9---------------------------||---------------------------------------------------------------------------||---------------------------------------------------------------------------||---------------------------------------------------------------------------|
-Riff A x3 (Both Guitars)- (Double Picked)
|----------------------------------------------------------||----------------------------------------------------------||----------------------------------------------------------||----------------------------------------------------------||----------------------------------------------------------||---12-0-0-12-0-0-13-12-0-10-12-0-12-0-0-13-12-0-17-16-----|
-Riff A 4th Time-
|------------------------------------------------------------||------------------------------------------------------------||------------------------------------------------------8-8---||----------------------------------9-------------------x-x---||------------------------------------8---------8-6h7p6-6-6---||---12-0-0-12-0-0-13-12-0-10-12-0------10-7-10---------------|
-Riff B x3 (Both Guitars)-
|-------------------------------------------------------||-------------------------------------------------------||-------------------------------------------------------||---2-------2------3/2---7\9----2-------2-------7/6-----||---2--2-2--2--2-2-3/2---5\7----2--2-2--2--2-2--7/6--2--||---0--0-0--0--0-0-1/0-0-5\7-0--0--0-0--0--0-0--5/4--0--| PM PM PM PM PM PM PM
-Riff B 4th time-
|--------------------------------------------------------||--------------------------------------------------------||---------------------------------------------------8-8--||---2-------2------3/2---7\9---9--------------------x-x--||---2--2-2--2--2-2-3/2---5\7-----8---------8--6h7p6-6-6--||---0--0-0--0--0-0-1/0-0-5\7-0-----10-7-10---------------| PM PM PM PM
-Intro to Riff C (Guitar I)- (Listen for timing)
|------------------------------------------------------||------------------------------------------------------||-------------------------------7-9--------------------||---------------------6-7-----6-----10-9--6-7----------||---2-2-2-2--1-2----------8-7-----------------8--------||---0-0-0-0--3-0---------------------------------------| PM PM -Guitar II-
|----------------------------------------------------------||----------------------------------10-12-------------------||----------------------------------------12-11-------------||---------------------9-10-------9-------------9-10--------||---2-2-2-2--1-2-----------12-11--------------------12-----||---0-0-0-0--3-0-------------------------------------------| PM PM
-Riff C x4 (Guitar I)- (Speed Picked)
|-------------------------------------------------------------------||-------------------------------------------------------------------||-------------------------------------------------------------------||-------------------------------------------------------------------||---7-------8--------11--------------11--------12---------14---15---||-------0-------0---------------0---------0----------0--------------|
------------------------------------------------|----------------|------------------------------------------------|----------------|------------------------------------------------|----------------| 1st------------------------------------------------|----------------| Ending----7-------8--------11-------------11-------12-|--------14----8-|--------0-------0---------------0--------0------|---0------------|
|------------------------||------------------------||------------------------| 2nd|------------------------| Ending|--------14----11----8---||---0--------------------|
-Riff C x2 (Guitar II)- (Comes in after 2nd time)
|---------------------------------------------------------------------||---------------------------------------------------------------------||---------------------------------------------------------------------||---------------------------------------------------------------------||----11---------12--------14--------14---------15-----------17----19--||---------0----------0---------0----------0-----------0---------------|
-------------------------------------------------------------------------|-------------------------------------------------------------------------|-------------------------------------------------------------------------|-------------------------------------------------------------------------|----11--------12--------14---------14----------15---------17----14----11-|---------0----------0---------0-----------0----------0-------------------|
-Interlude to Riff D x2 (Guitar I)-
|--------------------------------------||--------------------------------------||--------------------------------------||--------------------------------------||----5-----4-------5-4-----3-----------||------4-1---1-0h1-----3-2---4-1-0h1---|
-Guitar II-
|----------------------|--------------||----------------------|----------0---||--------------9-------|--------------||----9---8-----9-8--5--|---2--3-------||----10--9-----7-9--3--|---2--3---0---||----7---6-------6--3--|---0--1-------| PM PM PM PM
-Riff D x2 (Guitar I)-
|------------------0/---0-------------------------------------||---------------- 6-/---3-------------------------------------||----------------7--/---4------------------4-----------4\7----||------------6-9------------6-6--3-----3-6-4-6-3---3-6-3\6----||----7-----8----------------6-6--3---2-3-6-2-6-3-2-3-6-2\5----||------6-3------------------4-4--1---0-1-4---4-1-0-1-4--------| PM PM |---PM-----------|
----------------------------------------| 2nd time through the riff----------------------------------------| this last segment is played----------------------------------------| twice----33333333----------------------------|----------------------------------------|-------------444444445555555500000000---|
-Guitar II-
|------------------0/---0---------------------------------------7-4------||---------------- 6-/---3-------------------------------------------6----||--------------7-7--/---4------------------4-----------4\7------------7--||----------6-9--------------6-6--3-----3-6-4-6-3---3-6-3\6---------------||----7----------------------6-6--3---2-3-6-2-6-3-2-3-6-2\5---------------||------6-3------------------4-4--1---0-1-4---4-1-0-1-4-------------------| PM PM |---PM----------------------|
------------------------------------------| 2nd time through the riff------------------------------------------| this last segment is played------------------------------------------| twice------------------------------------------|---555585558888-11-8887777-10-77733333333-|------------------------------------------|
|------------------0/---0------------||---------------- 6-/---3------------||----------------7--/---4------------||------------6-9------------6-6--3---||----7-----8----------------6-6--3---||------6-3------------------4-4--1---| PM
-Chorus x2(Both Guitars)-
Bm(Dm) F#m(Am) Bm(Dm) DM(FM)|---1-----0----------5-----0----------1-----0-----------1---7------8-10----||---3-------3---3----5-------6--------3-------3---3-----1-----9------------||---2---------2------5---------7------2---------2-------2-------10---------||---0----------------7-----------7----0-----------------3------------------||--------------------0-----------------------------------------------------||--------------------------------------------------------------------------|
-Fall out chord-
F#m(Am)|---5-------------------------||---5-------------------------||---5-------------------------||---7------5-77-5-77-5-7777---||---0-------------------------||-----------------------------|
-Riff E x2 (Both Guitars)-
|--------------------5--------------------------------------------||--------------------5------------------10\13---------------------||------8-----8-----8-8---------------11-------14----------14------||----7-7-7-7-7-7-7-7-7---------10-13-------------16-13-16---------||----6-6-6-6-6-6-6-6-6----9-12------------------------------------||----5-5-5-5-5-5-5-5-5--------------------------------------------| PM PM PM
---------------------------------------------------------------------|-------------------------------------------------10------------------|-------14-------14-------14-------------11----------11----------11---|----13-13-13-13-13-13-13-13-------10-13----13-10-------13-10-13------|----12-12-12-12-12-12-12-12----12------------------------------------|----11-11-11-11-11-11-11-11------------------------------------------| PM PM PM
-Riff F x1(Guitar I)-
|------------------------------------------------||------------------------------------------------||------------------------------------------------||---5\77777--5\77777--5\77777------------7-------||---5\77777--5\77777--5\77777------6-8-9---------||---3\55555--3\55555--3\55555--5-8---------------|
-------------------------------------------------|-------------------------------------------------|---------------------------------------11--------|----5\77777--5\77777--5\77777-------10----13-10--|----5\77777--5\77777--5\77777--9-12--------------|----3\55555--3\55555--3\55555--------------------|
-------------------------------------------------|-------------------------------------------------|-------------------------------------------------|----5\77777--5\77777--5\77777------------7-------|----5\77777--5\77777--5\77777------6-8-9---------|----3\55555--3\55555--3\55555--5-8---------------|
--------------------------------------------------------|--------------------------------------------------------|-------------------------------13------8------7\8-5-----|----5\77777--5\77777--5\77777--x--6-7--x-9-10-x\x-x-----|----5\77777--5\77777--5\77777--11-x-x--6-x-x--5\6-3-----|----3\55555--3\55555--3\55555-----4-5----7-8------------|
-Riff F x1 (Guitar II)-
|---------------------------------------------------||---------------------------------------------------||---------------------------------------------------||---5\77777--5\77777--5\77777---------------10------||---5\77777--5\77777--5\77777-------9-11-12---------||---3\55555--3\55555--3\55555--8-11-----------------|
----------------------------------------------------|--------------------------------------10-7----------|------------------------------------8------8--------|----5\77777--5\77777--5\77777--7-10-----------------|----5\77777--5\77777--5\77777-----------------------|----3\55555--3\55555--3\55555-----------------------|
----------------------------------------------------|----------------------------------------------------|----------------------------------------------------|----5\77777--5\77777--5\77777---------------10------|----5\77777--5\77777--5\77777-------9-11-12---------|----3\55555--3\55555--3\55555--8-11-----------------|
---------------------------------------------------------------------------|---------------------------------------------------------------------------|------------------------------------------------------7-8----------11-12-8-|----5\77777--5\77777--5\77777---10------------------9-----10----10---------|----5\77777--5\77777--5\77777------12-11-9-11-12-11----------12------------|----3\55555--3\55555--3\55555----------------------------------------------|
-Intro to Riff G (Guitar I)-
|---------------------------------------------------------------------||---------------------------------------------------------------------||---------------------------------------------------------------------||--3---------3-----3---------3-----3---------3-----3333-6--3333-6-----||--------------------------------------------------3333-6--3333-6-----||----1-1-1-1---1-1---1-1-1-1---1-1---1-1-1-1---1-1-1111-4--1111-4-----| PM PM PM PM PM PM PM PM
-Guitar II-
|----------------------------------------------------------------------||----------------------------------------------------------------------||----------------------------------------------------------------------||--3---------3-----3---------6-----6---------6-----3333-6--3333-6------||--------------------------------------------------3333-6--3333-6------||----1-1-1-1---1-1---1-1-1-4---4-4---4-4-4-4---4-4-1111-4--1111-4------| PM PM PM PM PM PM PM PM
----------------|----------------|----------------|---3---3---6----|----------------|-----1---1---1--| PM PM PM
-Riff G x2 (Both Guitars)-
|----------------------------------------------------||----------------------------------------------------||----------------------------------------------------||---3---3---6---3-----------3---3---6----------------||-------------------2-----------------------1-2222---||-----1---1---1---1---1-0-1---1---1---0-1-4----------| PM PM PM PM PM PM PM
-Intersecting Riff (Both Guitars)-
|----------------------| |----------------------||----------------------| |----------------------||----------------------| Extension>> |----------------------||---------2-----5\6-2--| |----------2-----------||---------------4\5-1--| |----------------------||---0-1-4---4-1-3\4-0--| |----0-1-4---4-1-------|
Repeat Riff G x2 Then play the Intersecting Riff once more but with the extension above^ -Riff H x2 (Both Guitars)-
|------------------------------------------------------------------------||------------------------------------------------------------------------||------------------------------------------------------------------------||----7/----3---3-------------------3-6-7/----3---3---------------------3-||----8/----4---4-------------------4-7-8/----4---4---------------------4-||----5/--0-1-0-1--4tr5-0-5tr8-1tr4-1-4-5/--0-1-0-1--4tr5-0-5tr8-1tr4-0-1-| PM PM PM PM PM PM PM
-Transfer Riff (Both Guitars)-
|------------------------------------------------||------------------------------------------------||---------------4--------------------------------||---3---3--6-3--4-6-3---3---3-6------------------||---3-2-3--6-3--2-6-3-2-3-2-3-6--------1-2222----||---1-0-1--4-1----4-1-0-1-0-1-4--0-1-4-----------|
-Riff H Slowed Down x2 (Both Guitars)-
|---------------------------------------------||---------------------------------------------||---------------------------------------------||----7/----3---3-------------------------3----||----8/----4---4-------------------------4----||----5/--0-1-0-1--4h5p4-0-5h8p5-1h4p1-0--1----| PM PM PM PM
-Intro to Riff J (Guitar I)-
|-----------------------------------------------------------------------||-----------------------------------------------------------------------||-----------------------------------------------------------------------||---2---------2-----2---------2-----2---------2------2---2---2----------||----------------------------------------------------2---2---2---12/----||-----0-0-0-0---0-0---0-0-0-0---0-0---0-0-0-0---0-0--0---0---0---12/----| PM PM PM PM PM PM
------------------|------------------|------------------|---2-2------2-2---|---2-2--222-2-2---|---0-0--000-0-0---| PM
-Intro to Riff J (Guitar II)-
|-------------------------------------------------------------------------||-------------------------------------------------------------------------||-------------------------------------------------------------------------||-----2------2---2------2---2------2---2---2---2----------2-2------2-2----||-----2------2---2------2---2------2---2---2---2---12/----2-2--222-2-2----||-----0------0---0------0---0------0---0---0---0---12/----0-0--000-0-0----| PM PM PM PM PM PM PM
-Riff J x3 (Both Guitars)-
|----------------------------------------------------------------||----------------------------------------------------------------||----------------0---------------0-------------------------6-7---||---------2-----2----5-2-------2-5\8-----5-4-5-7-8-7-5-7-8-------||------------------------4---4-----------------------------------||---0-3-6---6-3------------6-------------------------------------|
-------------------------|-------------------------|-------------------------|-------------------------|---222-2--2--222-2--2----|---000-0--0--000-0--0----| PM PM
-Riff J 4th time (Guitar I)-
|----------------------------------------------------------------||----------------------------------------------------------------||----------------0---------------0-------------------------6-----||---------2-----2----5-2-------2-5\8-----5-4-5-7-8-7-5-7-8----7--||------------------------4---4-----------------------------------||---0-3-6---6-3------------6-------------------------------------|
-Riff J 4th time (Guitar II)-
|----------------------------------------------------------------||----------------------------------------------------------------||----------------0---------------0-------------6-7-6---6-7-9-----||---------2-----2----5-2-------2-5\8-----8-7-8-------8--------11-||------------------------4---4-----------------------------------||---0-3-6---6-3------------6-------------------------------------|
-Chorus x16 (Both Guitars)-
Bm(Dm) F#m(Am) Bm(Dm) DM(FM)|---1-----0----------5-----0----------1-----0-----------1---7------8-10----||---3-------3---3----5-------6--------3-------3---3-----1-----9------------||---2---------2------5---------7------2---------2-------2-------10---------||---0----------------7-----------7----0-----------------3------------------||--------------------0-----------------------------------------------------||--------------------------------------------------------------------------|
~END~
Tap to rate this tab
 
# A B C D E F G H I J K L M N O P Q R S T U V W X Y Z