Big Cyc - Wyroznienie tab

Taby ze słuchu niezbyt profesjonalne ale zawsze coś :)

Zwrtoka 1:

----------------------------------|----------------------------------|----------------------------------|-11-x-x-x-x-x-x-x-7-x-x-x-x-x-x-x-|-11-x-x-x-x-x-x-x-7-x-x-x-x-x-x-x-|-9--x-x-x-x-x-x-x-5-x-x-x-x-x-x-x-|
----------------------------------|----------------------------------|----------------------------------|-4-x-x-x-x-x-x-x-6-4-6------------|-4-x-x-x-x-x-x-x-6-4-6------------|-2-x-x-x-x-x-x-x-4-2-4------------|
----------------------------------|----------------------------------|----------------------------------|-8-8-6-6-4-4-4-4-4------4-~-------|-8-8-6-6-4-4-4-4-4--x3--4-~-------|-6-6-4-4-2-2-2-2-2------2-~-------|
Refren:
-------------------------------------|-------------------------------------|-6-6-------------6-6-----------------|-6-6-6-6-8-8-4-4-6-6-6-6-8-8-4-4-4-4-|-4-4-6-6-8-8-4-4-4-4-6-6-8-8-4-4-4-4-|-----4-4-6-6-2-2-----4-4-6-6-2-2-2-2-| x3
Zwrtoka 2:
----------------------------------|----------------------------------|----------------------------------|-11-x-x-x-x-x-x-x-7-x-x-x-x-x-x-x-|-11-x-x-x-x-x-x-x-7-x-x-x-x-x-x-x-|-9--x-x-x-x-x-x-x-5-x-x-x-x-x-x-x-|
----------------------------------|----------------------------------|----------------------------------|-4-x-x-x-x-x-x-x-6-4-6------------|-4-x-x-x-x-x-x-x-6-4-6------------|-2-x-x-x-x-x-x-x-4-2-4------------|
----------------------------------|----------------------------------|----------------------------------|-8-8-6-6-4-4-4-4-4------4-~-------|-8-8-6-6-4-4-4-4-4--x3--4-~-------|-6-6-4-4-2-2-2-2-2------2-~-------|
Refren:
-------------------------------------|-------------------------------------|-6-6-------------6-6-----------------|-6-6-6-6-8-8-4-4-6-6-6-6-8-8-4-4-4-4-|-4-4-6-6-8-8-4-4-4-4-6-6-8-8-4-4-4-4-|-----4-4-6-6-2-2-----4-4-6-6-2-2-2-2-| x3
Mostek:
------------------------------------|------------------------------------|------------------------------------|-3-3-x-x-x-x-x-5-5-x-x-x-x-x--------|-3-3-x-x-x-x-x-5-5-x-x-x-x-x--------|-1-1-x-x-x-x-x-3-3-x-x-x-x-x--------| x3
------------------------------------|------------------------------------|------------------------------------|-3-3-x-x-x-x-x--4-6-----------------|-3-3-x-x-x-x-x--4-6-----------------|-1-1-x-x-x-x-x--2-4-----------------|
Refren:
-------------------------------------|-------------------------------------|-6-6-------------6-6-----------------|-6-6-6-6-8-8-4-4-6-6-6-6-8-8-4-4-4-4-|-4-4-6-6-8-8-4-4-4-4-6-6-8-8-4-4-4-4-|-----4-4-6-6-2-2-----4-4-6-6-2-2-2-2-| x6
Zakończenie:
----------------------------------|----------------------------------|----------------------------------|-11-x-x-x-x-x-x-x-7-x-x-x-x-x-x-x-|-11-x-x-x-x-x-x-x-7-x-x-x-x-x-x-x-|-9--x-x-x-x-x-x-x-5-x-x-x-x-x-x-x-|
----------------------------------|----------------------------------|----------------------------------|-4-x-x-x-x-x-x-x-6-4-6------------|-4-x-x-x-x-x-x-x-6-4-6------------|-2-x-x-x-x-x-x-x-4-2-4------------|
----------------------------------|----------------------------------|----------------------------------|-11-x-x-x-x-x-x-x-7-x-x-x-x-x-x-x-|-11-x-x-x-x-x-x-x-7-x-x-x-x-x-x-x-|-9--x-x-x-x-x-x-x-5-x-x-x-x-x-x-x-|
----------------------------------|----------------------------------|----------------------------------|-4-x-x-x-x-x-x-x-6---4-6--11------|-4-x-x-x-x-x-x-x-6---4-6--11------|-2-x-x-x-x-x-x-x-4---2-4--9-------|
I to by było na tyle wg. mnie tak to powinno brzmieć (mniej więcej).
Tap to rate this tab
 
# A B C D E F G H I J K L M N O P Q R S T U V W X Y Z