Bill Frisell - Abidan tab

                     Abidan - Bill Frisell

Composed by John Zorn

Tabbed by : Aoakaua
Email : goldendawn04@hotmail.com


E||-------0-------------------|----------------0-------|B||-------1-3--1--------------|----------------0-------|G||---------------4-2--5-4----|-----4------------------|D||--7----------------------7-|--6----7----6---3---2---|A||--7------------------------|------------------------|E||---------------------------|------------------------|
----------------------------|------------------0---5--|----------------------------|----------1--3-----------|----------------------------|-------------------------|--0--3-2--0----2-0----------|----------2--------------|------------3-------3-2---5/|--3--2-0-----------------|----------------------------|-------------------------|
-------7-----8p-7p-5p-4h-7--|--5--0-------------------|----5-----5-----------------|--------3----------3--4--|----------------------------|-----------5-------------|----------------------------|-----------5-------------|----------------------------|--------------3----------|----------------------------|-------------------------|
-----1----1---------------|---------------------------|--6--4-3--1--1--0----1----|-----1--3----1--1--3----1--|--------------------------|--0--------0----------0----|--------------------------|---------------------------|---------------------3----|---------------------------|--------------------------|---------------------------|
---------------------------|------------4----6-7--6-4---|--1--3--1--------------0-2-|--0-------------------------|-------------1-----1-3-----|-----3--1-------------------|-----------------1---------|----------------------------|---------------------------|----------------------------|---------------------------|----------------------------|
--5-----7-----8-----7-----|--5---------3-----5-----|--6-----5--3---2-------|-----5-----5-----5-----5--|-----9---------3-----3--|-----3-----------------|--5-----4-----5-----4-----|------------3-----2-----|--3------------2-------|--------------------------|------------------------|-----------------------|--------------------------|------------------------|-----------------------|--------------------------|------------------------|-----------------------|
--0------------------|--4----5----4--------------|----0-------------------|-------0----------0--|---------------6--5--3--0--|----0-------------------|-----------10--------|-----4----4----------------|----1-------------------|---------------------|---------------------------|----3-------------------|--7------------7-----|---------------------------|-------2------------3-2-|---------------------|---------------------------|------------0/-4--------|
-------0--------0--------|---------------------------|----------0---------0----|------------------0---1--0-|-------------------------|--------------2------------|-------------------------|--------------2------------|--0----------2--3------2-|---0-----0-----------------|-------------------------|------4--------------------|
-------------0--5--7-8--7-5---|----------8-11-10-8-----------------------|------------------------------|-------8-------------8--------------------|--2--1-2----------------------|--5---------------------8-----------------|----------2-------------------|--5------------------------12--10---------|------------------------------|-------------------------------------10---|------------------------------|------------------------------------------|
-----------4--6-----6-----6-----|-----------4-----------------------|-----------------9-----9-----9--|--4-----4-----4--------------------|------4-------------------------|-----6----------------1--3--1------|--------------------------------|-------------------1---------------|--6-----------------------------|-----------------------------------|--4-----------------------------|-----------------------------------|
--------5--7--8--7-5-4---|--3-----3--5--6--5--3--2------|--5----------------------|-----3------------------------|-----5-------------------|--3--------------------0------|-------------------------|------------------------------|-------------------------|------------------------------|-------------------------|------------------------------|
--1-----1-----0--------0-----|------------------|--------------------0--5--|-----0-----0--------0-----3--|--------3--1------|-----------------3--------|-----------------------------|-----1--------1---|-----------------2--------|--3-----3--------2-----------|--3---------------|--2-----------2-----------|-----------------------------|------------------|-----2-----0--------------|-----------------------------|------------------|--------0-----------------|
--0--7--8--10--12--12--10--8------10--8--|------------------------------12---------|-----------------------------------------|-----------------------------------------|-----------------------------------------|-----------------------------------------|
---------------------------------------------------|--12--10---10--9-10--------10----------------------|-----------------0---9--7------------9-----9-------|------------------------------10--7----------------|----------------------------------------7-----7-10-|---------------------------------------------------|
-----5-------7--8--7--5--4--5---------|-----------7----3--------3-|--------5------------------------5----|------------------4-3------|--------------------------------------|--5----7-8-------------0---|--------------------------------------|--5------------------------|--7-----------------------------------|---------------------------|--5-----------------------------------|---------------------------|
---------------------------------|--4--3--1----4-3-1-0-3-1---------|-----------------------------0---|---------------------------------|--------------------------3------|---------------------------------|
---------4-6-7--6--4--3--4-----------4---------------|--5----7---8-7-5-4----|----------------------------4-----4-----4-----4------|-----5---5------------|-------4-----------------------4---------------------|----------------------|----------------------------------6--------6---------|----------------------|--6--------------------------------------------------|----------------------|--4--------------------------------------------------|----------------------|
--3----5---6--5-3-2-----|--0----------1--------4-----5--|-----3---3--------------|--0----------------0-----0-----|--0--------0------------|-------------------------------|------------------------|--3-------------3-----6-----7--|------------------------|--------2----------------------|------------------------|-----0-------------------------|
-----4-----1-----0-------------------|---------------------0-----0--1--|--0-----0-----0-----0--3-------------|------------------------0--3-----|-----------------------------1-------|---------------------------------|-----6-----3-----2--------3-------3--|--2------------------------------|-------------------------------------|-----2-3-2--------7--------------|-------------------------------------|------------0/-4-----------------|
--4----7-------12------|--10-8-7-5-----5--7--8--7--5--4--5-----------|--0---------9----------|------------5-----------------------5--------|-------7---------------|---------------------------------------7--5--|-----------------------|---------------------------------------------|-----------------------|---------------------------------------------|-----------------------|---------------------------------------------|
----------------------------|----------------------------------|----------0--1--0-----------|-------------1--3--4-----3-----1--|--2----------------2--1--2--|----------0-----------0-----0-----|--2-------------------------|--2-------------------------------|-------0--------------------|-------3--------------------------|----------------------------|----------------------------------|
----------------------------------|-------------------------|-----0-----1----------------------|-------------------------|--0-----0-------1-----3-----4-----|--3-----1-----0-----1----|-------------------1-----1-----1--|-----1-----1-----1-------|----------------------------------|-------------------------|----------------------------------|-------------------------|
--------------------------|--------------------------|-----------0--1--0--------|--------------------------|--2----------------2-1----|--0-----2-----3--2-1------|-----2--------------------|-----0-----0---------4----|--------0-----------------|--------------------------|--------------------------|--3-----------------------|
--------------------------|-----------------------|--------------------------|--------------------0--|----------------1------2--|-----1-----------------|--2-------3---------------|--0-------3----2-------|--2----2------------------|---------------2-------|--0----------0------------|---------------0-------|
--0--5-----7-----8-----7-----5-----4-----5----|-----5--5-----5-----5-----5-----5-----5-------|----------------------------------------------|----------------------------------------------|----------------------------------------------|----------------------------------------------|
--5-----7--0--8---0--7--0--5----4------5--------|------------------------------------------------|------------------------------------------------|-----7--9-----10-----9-----7--------------------|------------------------------------------------|------------------------------------------------|
--8-----10-----11----10--8--7--8-------|--4-----6-----7--6--4--3--4------|-----8------8--------------------------|-----4-----4---------------------|--8------------------------------------|--4-----------------------4------|---------------------------------------|---------------------------------|---------------------------------------|---------------------------------|---------------------------------------|---------------------------------|
--5-----7-----8----7-5-4-----|--3-----5-----6----5-3-2-------|-----5-----5-----------------|-----3-----3-------------------|--5--------------------------|--3-----------------------0----|-----------------------------|-------------------------------|-----------------------------|-------------------------------|-----------------------------|-------------------------------|
--0-----1-----4-----5-----4-----1-----|--0-----------------0--|-----0-----0-----0-----0-----0-----0--|-------0------------0--|--------------------------------------|------------1----------|--2-----3-----6-----7-----6-----3-----|--2---------3----------|--------------------------------------|---------------2-------|--------------------------------------|-----------------------|
--------------------||--------------------||--1-----------------||--3-----------------||--------------------||-------0------------||
************************************ | / slide up | \ slide down | h hammer-on | p pull-off | ~ vibrato | + harmonic | x Mute note | b Bend | pb Pre-bend | br Bend release | pbr Pre-bend release | brb Bend release bend ************************************
Tap to rate this tab
 
# A B C D E F G H I J K L M N O P Q R S T U V W X Y Z