Scream tab with lyrics by Billy Idol - Easy chords and tabs for guitar

Billy Idol – Scream tab

Scream
thomas egan
couldnt find a tab for this so i made my own

E||------------------------------|----------------------------|B||------------------------------|----------------------------|G||--11/--10-8--8/10---8--8/10---|--8--8/10---8--8------------|D||--11/--10-8--8/10---8--8/10---|--8--8/10---8--8--10--10----|A||--9/---8--6--6/8----6--6/8----|--6--6/8----6--6--10--10----|E||------------------------------|------------------8---8-----|
------------------------------|--------------------------|------------------------------|--------------------------|--11/--10-8--8/10---8--8/10---|--8--8/10---8--8----------|--11/--10-8--8/10---8--8/10---|--8--8/10---8--8--8--8----|--9/---8--6--6/8----6--6/8----|--6--6/8----6--6--8--8----|------------------------------|------------------6--6----|
----------------------------|--------------------|---------------------------|----------------------------|--------------------|---------------------------|--11/--10-8--8/10---8-------|------------8--8----|---------------------------|--11/--10-8--8/10---8--8----|------------8--8----|--8/-10--------------------|--9/---8--6--6/8----6--8----|------------6--6----|--8/-10--------------------|-----------------------6----|--------------------|--6/-8---8--8--8--8--8--8--|
---------------------------|---------------------------|---------------------------|---------------------------|-----8--------8--8--8/-10--|---------------------------|-----8--------8--8--8/-10--|--8/-10--------------------|---------------------------|--8/-10--------------------|--8-----8--8-----8---------|--6/-8---8--8--8--8--8--8--|
------------------------------|---------------------------------|------------------------------|---------------------------------|-----8--------11/--10-8--8/10-|---------------------------------|-----8--------11/--10-8--8/10-|--8/-10--------------------------|------------------------------|--8/-10--10--10--10--10--10--10--|--8-----8--8------------------|--6/-8---8---8---8---8---8---8---|
-------------------------------|---------------------------------|-------------------------------|---------------------------------|------8----------8--8---8/-10--|---------------------------------|------8----------8--8---8/-10--|--8/-10--------------------------|--10-----10--10-----10---------|--8/-10--10--10--10--10--10--10--|--8------8---8------8----------|--6/-8---8---8---8---8---8---8---|
---------------------------------|--------------------------|---------------------------------|--------------------------|------8----------11/--10-10/--11-|--------------------------|------8----------11/--10-10/--11-|--10----x--x--x--x--x--x--|--10--6--10--10--9/---8--8/---9--|--10----x--x--x--x--x--x--|--8------8---8-------------------|--8-----x--x--x--x--x--x--|
--------------------------|--------------------------|--------------------------|--------------------------|--------------------------|--------------------------|--x--x--x--x--x--x--x--x--|--x--x--x--x--x--x--x--x--|--x--x--x--x--x--x--x--x--|--x--x--x--x--x--x--x--x--|--x--x--x--x--x--x--x--x--|--x--x--x--x--x--x--x--x--|
--------------------------|--------------------------|--------------------------|--------------------------|--------------------------|--------------------------|--x--x--x--x--x--x--x--x--|--x--x--x--x--x--x--x--x--|--x--x--x--x--x--x--x--x--|--x--x--x--x--x--x--x--x--|--x--x--x--x--x--x--x--x--|--x--x--x--x--x--x--x--x--|
--------------------------|--------------------------|--------------------------|--------------------------|--------------------------|--------------------------|--x--x--x--x--x--x--x--x--|--x--x--x--x--x--x--x--x--|--x--x--x--x--x--x--x--x--|--x--x--x--x--x--x--x--x--|--x--x--x--x--x--x--x--x--|--x--x--x--x--x--x--x--x--|
--------------------------|--------------------------|--------------------------|--------------------------|--------------------------|--------8-----------------|--x--x--x--x--x--x--x--x--|--x--x--8--x--x--x--x--x--|--x--x--x--x--x--x--x--x--|--x--x-----x--x--x--x--x--|--x--x--x--x--x--x--x--x--|--x--x-----x--x--x--x--x--|
---------------------------|--------------------------|---------------------------|--------------------------|-----------8--x--x--8--10--|--------------------------|--x--x--x--8--x--x--8--10--|--x--x--8--x--x--x--x--x--|--x--x--x-----x--x---------|--x--x--8--x--x--x--x--x--|--x--x--x------------------|--x--x-----x--x--x--x--x--|
----------------------------|--------------------------|----------------------------|--------------------------|-----------8--x--x----------|--x--x--8--x--x--x--x--x--|--x--x--x--8--x--x--10--10--|--x--x--8--x--x--x--x--x--|--x--x--x-----x--x--10--10--|--x--x-----x--x--x--x--x--|--x--x--x-------------------|--------------------------|
----------------------------|--------------------------|----------------------------|--------------------------|--x--x--x--8--x------8--10--|--x--x--8--x--x--x--x--x--|--x--x--x--8--x------8--10--|--x--x--8--x--x--x--x--x--|--x--x--x-----x--10---------|--x--x-----x--x--x--x--x--|-----------------8----------|--------------------------|
----------------------------|--------------------------|----------------------------|--------------------------|--x--x--x--8--x--x----------|--x--x--8--x--x--x--x--x--|--x--x--x--8--x--x--10--10--|--x--x--8--x--x--x--x--x--|--x--x--x-----x--x--10--10--|--x--x-----x--x--x--x--x--|----------------------------|--------------------------|
---------------------------|-------------------------|---------------------------|-------------------------|--x--x--x--8--x------------|--x--x--8--x--x----------|--x--x--x--8--x--8--8/10---|--x--x--8--x--x--10/-----|--x--x--x-----x--8--8/10---|--x--x-----x--x--10/-----|---------------------------|-----------------8/------|
-------------------------------|-----------------------------|-------------------------------|-----------------------------|-------------------------------|-------------8--8--10--10----|--8--10--10--8--10--10--8--10--|--10--8--10--8--8--10--10----|--8--10--10--8--10--10--8--10--|--10--8--10--6--6--8---8-----|--6--8---8---6--8---8---6--8---|--8---6--8-------------------|
----------------------------------|----------------------------------|----------------------------------|----------------------------------|----------------------------------|----------------------------------|--10--10--10--10--10--10--10--10--|--10--10--10--10--10--10--10--10--|--10--10--10--10--10--10--10--10--|--10--10--10--10--10--10--10--10--|--8---8---8---8---8---8---8---8---|--8---8---8---8---8---8---8---8---|
--------------------------|-------------------------------|--------------------------|-------------------------------|--------------------------|--10--10--10--10--10--8--8--8--|--8--8--8--8--8--8--8--8--|--10--10--10--10--10--8--8--8--|--8--8--8--8--8--8--8--8--|--8---8---8---8---8---6--6--6--|--6--6--6--6--6--6--6--6--|-------------------------------|
----------------------------------|----------------------------------|----------------------------------|----------------------------------|----------------------------------|----------------------------------|--10--10--10--10--10--10--10--10--|--10--10--10--10--10--10--10--10--|--10--10--10--10--10--10--10--10--|--10--10--10--10--10--10--10--10--|--8---8---8---8---8---8---8---8---|--8---8---8---8---8---8---8---8---|
--------------------------|-------------------------------|--------------------------|-------------------------------|--------------------------|--10--10--10--10--10--8--8--8--|--8--8--8--8--8--8--8--8--|--10--10--10--10--10--8--8--8--|--8--8--8--8--8--8--8--8--|--8---8---8---8---8---6--6--6--|--6--6--6--6--6--6--6--6--|-------------------------------|
----------------------------------|----------------------------------|----------------------------------|----------------------------------|----------------------------------|----------------------------------|--10--10--10--10--10--10--10--10--|--10--10--10--10--10--10--10--10--|--10--10--10--10--10--10--10--10--|--10--10--10--10--10--10--10--10--|--8---8---8---8---8---8---8---8---|--8---8---8---8---8---8---8---8---|
--------------------------|-------------------------------|--------------------------|-------------------------------|--------------------------|--10--10--10--10--10--8--8--8--|--8--8--8--8--8--8--8--8--|--10--10--10--10--10--8--8--8--|--8--8--8--8--8--8--8--8--|--8---8---8---8---8---6--6--6--|--6--6--6--6--6--6--6--6--|-------------------------------|
----------------------------------|----------------------------------|----------------------------------|----------------------------------|----------------------------------|----------------------------------|--10--10--10--10--10--10--10--10--|--10--10--10--10--10--10--10--10--|--10--10--10--10--10--10--10--10--|--10--10--10--10--10--10--10--10--|--8---8---8---8---8---8---8---8---|--8---8---8---8---8---8---8---8---|
--------------------------|-------------------------------|-------------------|--------------------------|-------------------------------|-------------------|--------------------------|--10--10--10--10--10--8--8--8--|--8----------------|--8--8--8--8--8--8--8--8--|--10--10--10--10--10--8--8--8--|--8----------------|--8--8--8--8--8--8--8--8--|--8---8---8---8---8---6--6--6--|--6----------------|--6--6--6--6--6--6--6--6--|-------------------------------|-------------------|
----------------------|----------------------------------|----------------------|----------------------------------|-------------8--8-----|----------------------------------|--8----------8--8-----|--10--10--10--10--10--10--10--10--|--8----------6--6-----|--10--10--10--10--10--10--10--10--|--6----------------8--|--8---8---8---8---8---8---8---8---|
-------------------------------|----------------------------------|-------------------------------|----------------------------------|------8----------8--8---8/-10--|----------------------------------|------8----------8--8---8/-10--|--10--10--10--10--10--10--10--10/-|--10-----10--10-----10---------|--10--10--10--10--10--10--10--10/-|--8------8---8------8----------|--8---8---8---8---8---8---8---8/--|
----------------------|--------------------------|---------------------------|----------------------|--------------------------|---------------------------|----------------------|--------------------------|-----------8--------8--10--|------------10--10/---|--10----x--x--x--x--x--x--|--x--x--x--8--x--x--8--10--|------------10--10/---|--10----x--x--x--x--x--x--|--x--x--x-----x--x---------|------------8---8/----|--8-----x--x--x--x--x--x--|--x--x--x-----x--x---------|
--------------------------|----------------------------|--------------------------|----------------------------|--------------------------|-----------8--x--x----------|--x--x--8--x--x--x--x--x--|--x--x--x--8--x--x--10--10--|--x--x--8--x--x--x--x--x--|--x--x--x-----x--x--10--10--|--x--x-----x--x--x--x--x--|--x--x--x-------------------|
--------------------------|----------------------------|--------------------------|----------------------------|--x--x--8--x--x--x--x--x--|--x--x--x--8--x------8--10--|--x--x--8--x--x--x--x--x--|--x--x--x--8--x------8--10--|--x--x-----x--x--x--x--x--|--x--x--x-----x--10---------|--------------------------|-----------------8----------|
--------------------------|----------------------------|--------------------------|----------------------------|--x--x--8--x--x--x--x--x--|--x--x--x--8--x--x----------|--x--x--8--x--x--x--x--x--|--x--x--x--8--x--x--10--10--|--x--x-----x--x--x--x--x--|--x--x--x-----x--x--10--10--|--------------------------|----------------------------|
--------------------------|---------------------------|--------------------------|---------------------------|--------8-----------8-----|-----------8--x--x--8--10--|--x--x--8--x--x--x--8--x--|--x--x--x--8--x--x--8--10--|--x--x-----x--x--x-----x--|--x--x--x-----x--x---------|--x--x-----x--x--x-----x--|--x--x--x------------------|
--------------------------|----------------------------|--------------------------|----------------------------|--------------------------|-----------8--x--x----------|--x--x--8--x--x--x--8--x--|--x--x--x--8--x--x--10--10--|--x--x--8--x--x--x--8--x--|--x--x--x-----x--x--10--10--|--x--x-----x--x--x-----x--|--x--x--x-------------------|
--------------------------|----------------------------|--------------------------|----------------------------|--x--x--8--x--x--x--8--x--|--x--x--x--8--x------8--10--|--x--x--8--x--x--x--8--x--|--x--x--x--8--x------8--10--|--x--x-----x--x--x-----x--|--x--x--x-----x--10---------|--------------------------|-----------------8----------|
--------------------------|----------------------------|--------------------------|----------------------------|--x--x-----x--x--x-----x--|--x--x--x--8--x--x----------|--x--x--8--x--x--x--8--x--|--x--x--x--8--x--x--10--10--|--x--x--8--x--x--x--8--x--|--x--x--x-----x--x--10--10--|--------------------------|----------------------------|
--------------------------|----------------------------|--------------------------|----------------------------|--x--x-----x--x--x-----x--|--x--x--x--8--x--x----------|--x--x--8--x--x--x--8--x--|--x--x--x--8--x--x--10--10--|--x--x--8--x--x--x--8--x--|--x--x--x-----x--x--10--10--|--------------------------|----------------------------|
-------------------------|-------------------------------|-------------------------|-------------------------------|--x--x-----x--x----------|-------------------------------|--x--x--8--x--x--10/-----|--8--10--10--8--10--10--8--10--|--x--x--8--x--x--10/-----|--8--10--10--8--10--10--8--10--|-----------------8/------|--6--8---8---6--8---8---6--8---|
-----------------------------|----------------------------------|-----------------------------|----------------------------------|-------------8--8--10--10----|----------------------------------|--10--8--10--8--8--10--10----|--10--10--10--10--10--10--10--10--|--10--8--10--6--6--8---8-----|--10--10--10--10--10--10--10--10--|--8---6--8-------------------|--8---8---8---8---8---8---8---8---|
----------------------------------|--------------------------|----------------------------------|--------------------------|----------------------------------|--------------------------|--10--10--10--10--10--10--10--10--|--8--8--8--8--8--8--8--8--|--10--10--10--10--10--10--10--10--|--8--8--8--8--8--8--8--8--|--8---8---8---8---8---8---8---8---|--6--6--6--6--6--6--6--6--|
-------------------------------|----------------------------------|-------------------------------|----------------------------------|--10--10--10--10--10--8--8--8--|----------------------------------|--10--10--10--10--10--8--8--8--|--10--10--10--10--10--10--10--10--|--8---8---8---8---8---6--6--6--|--10--10--10--10--10--10--10--10--|-------------------------------|--8---8---8---8---8---8---8---8---|
----------------------------------|--------------------------|----------------------------------|--------------------------|----------------------------------|--------------------------|--10--10--10--10--10--10--10--10--|--8--8--8--8--8--8--8--8--|--10--10--10--10--10--10--10--10--|--8--8--8--8--8--8--8--8--|--8---8---8---8---8---8---8---8---|--6--6--6--6--6--6--6--6--|
-------------------------------|----------------------------------|-------------------------------|----------------------------------|--10--10--10--10--10--8--8--8--|----------------------------------|--10--10--10--10--10--8--8--8--|--10--10--10--10--10--10--10--10--|--8---8---8---8---8---6--6--6--|--10--10--10--10--10--10--10--10--|-------------------------------|--8---8---8---8---8---8---8---8---|
----------------------------------|--------------------------|----------------------------------|--------------------------|----------------------------------|--------------------------|--10--10--10--10--10--10--10--10--|--8--8--8--8--8--8--8--8--|--10--10--10--10--10--10--10--10--|--8--8--8--8--8--8--8--8--|--8---8---8---8---8---8---8---8---|--6--6--6--6--6--6--6--6--|
-------------------------------|----------------------------------|-------------------------------|----------------------------------|--10--10--10--10--10--8--8--8--|----------------------------------|--10--10--10--10--10--8--8--8--|--10--10--10--10--10--10--10--10--|--8---8---8---8---8---6--6--6--|--10--10--10--10--10--10--10--10--|-------------------------------|--8---8---8---8---8---8---8---8---|
----------------------------------|--------------------------|----------------------------------|--------------------------|----------------------------------|--------------------------|--10--10--10--10--10--10--10--10--|--8--8--8--8--8--8--8--8--|--10--10--10--10--10--10--10--10--|--8--8--8--8--8--8--8--8--|--8---8---8---8---8---8---8---8---|--6--6--6--6--6--6--6--6--|
-------------------------------|-------------------|----------------------|-------------------------------|-------------------|----------------------|--10--10--10--10--10--8--8--8--|--8----------------|-------------8--8-----|--10--10--10--10--10--8--8--8--|--8----------------|--8----------8--8-----|--8---8---8---8---8---6--6--6--|--6----------------|--8----------6--6-----|-------------------------------|-------------------|--6----------------8--|
----------------------------------|-------------------------------|----------------------------------|-------------------------------|----------------------------------|------8----------8--8---8/-10--|--10--10--10--10--10--10--10--10--|------8----------8--8---8/-10--|--10--10--10--10--10--10--10--10--|--10-----10--10-----10---------|--8---8---8---8---8---8---8---8---|--8------8---8------8----------|
----------------------------------|------------------|----------------------------------|------------------|----------------------------------|------------------|--10--10--10--10--10--10--10--10/-|------------------|--10--10--10--10--10--10--10--10/-|------------------|--8---8---8---8---8---8---8---8/--|------------------|
----------------------------------|----------------------------------|----------------------------------|----------------------------------|----------------------------------|----------------------------------|--10--10--10--10--10--10--10--10--|--10--10--10--10--10--10--10--10--|--10--10--10--10--10--10--10--10--|--10--10--10--10--10--10--10--10--|--8---8---8---8---8---8---8---8---|--8---8---8---8---8---8---8---8---|
--------------------------|----------------------------------|--------------------------|----------------------------------|--------------------------|--10--10--10--10--10--10--10--10--|--8--8--8--8--8--8--8--8--|--10--10--10--10--10--10--10--10--|--8--8--8--8--8--8--8--8--|--8---8---8---8---8---8---8---8---|--6--6--6--6--6--6--6--6--|----------------------------------|
----------------------------------|----------------------------------|----------------------------------|----------------------------------|----------------------------------|----------------------------------|--10--10--10--10--10--10--10--10--|--10--10--10--10--10--10--10--10--|--10--10--10--10--10--10--10--10--|--10--10--10--10--10--10--10--10--|--8---8---8---8---8---8---8---8---|--8---8---8---8---8---8---8---8---|
--------------------------|----------------------------------|--------------------------|----------------------------------|--------------------------|--10--10--10--10--10--10--10--10--|--8--8--8--8--8--8--8--8--|--10--10--10--10--10--10--10--10--|--8--8--8--8--8--8--8--8--|--8---8---8---8---8---8---8---8---|--6--6--6--6--6--6--6--6--|----------------------------------|
----------------------------------|----------------------------------|----------------------------------|----------------------------------|----------------------------------|----------------------------------|--10--10--10--10--10--10--10--10--|--10--10--10--10--10--10--10--10--|--10--10--10--10--10--10--10--10--|--10--10--10--10--10--10--10--10--|--8---8---8---8---8---8---8---8---|--8---8---8---8---8---8---8---8---|
--------------------------|----------------------------------|--------------------------|----------------------------------|--------------------------|--10--10--10--10--10--10--10--10--|--8--8--8--8--8--8--8--8--|--10--10--10--10--10--10--10--10--|--8--8--8--8--8--8--8--8--|--8---8---8---8---8---8---8---8---|--6--6--6--6--6--6--6--6--|----------------------------------|
----------------------------------|----------------------------------|----------------------------------|----------------------------------|----------------------------------|----------------------------------|--10--10--10--10--10--10--10--10--|--10--10--10--10--10--10--10--10--|--10--10--10--10--10--10--10--10--|--10--10--10--10--10--10--10--10--|--8---8---8---8---8---8---8---8---|--8---8---8---8---8---8---8---8---|
--------------------------|----------------------------------|--------------------------|----------------------------------|--------------------------|--10--10--10--10--10--10--10--10--|--8--8--8--8--8--8--8--8--|--10--10--10--10--10--10--10--10--|--8--8--8--8--8--8--8--8--|--8---8---8---8---8---8---8---8---|--6--6--6--6--6--6--6--6--|----------------------------------|
------------------------------|----------------------------|------------------------------|----------------------------|--11/--10-8--8/10---8--8/10---|--8--8/10---8--8------------|--11/--10-8--8/10---8--8/10---|--8--8/10---8--8--10--10----|--9/---8--6--6/8----6--6/8----|--6--6/8----6--6--10--10----|------------------------------|------------------8---8-----|
------------------------------|--------------------------|------------------------------|--------------------------|--11/--10-8--8/10---8--8/10---|--8--8/10---8--8----------|--11/--10-8--8/10---8--8/10---|--8--8/10---8--8--8--8----|--9/---8--6--6/8----6--6/8----|--6--6/8----6--6--8--8----|------------------------------|------------------6--6----|
----------------------------|--------------------|--------------------|----------------------------|--------------------|--------------------|--11/--10-8--8/10---8-------|------------8--8----|--------------------|--11/--10-8--8/10---8--8----|------------8--8----|--10----------------|--9/---8--6--6/8----6--8----|------------6--6----|--10----------------|-----------------------6----|--------------------|--8-----------------|
------------------|------------------|--------------------|--------------|------------------|------------------|--------------------|--------------|------------------|------------------|--------------------|--------------|------------------|------------------|--------10/---------|--------------|------------------|------------------|--------10/---------|--------------|------------------|------------------|--------8/----------|--------------|
--------------|--------------|--------------|--------------|--------------|--------------|--------------|--------------|--------------|--------------|--------------|--------------|--------------|--------------|--------------|--------------|--------------|--------------|--------------|--------------|--------------|--------------|--------------|--------------|--------------|--------------|--------------|--------------|--------------|--------------|
--------------|--------------|---------------------|-----------------------|--------------|--------------|---------------------|-----------------------|--------------|--------------|----8------8------8--|----8------8----8--10--|--------------|--------------|----8------8------8--|----8------8----8--10--|--------------|--------------|---------------------|-----------------------|--------------|--------------|---------------------|-----------------------|
---------------------|----------------------|---------------------|---------------------|----------------------|---------------------|---------------------|----8------10----8----|----8------8------8--|----8------8----8----|----8------10----8----|----8------8------8--|----8------8----8----|----------------------|---------------------|---------------------|----------------------|---------------------|
-----------------------|---------------------|----------------------|-----------------------|---------------------|----------------------|----8------8----8--10--|---------------------|----8------10----8----|----8------8----8--10--|----8------8----8----|----8------10----8----|-----------------------|----8------8----8----|----------------------|-----------------------|---------------------|----------------------|
---------------------|----------------------|---------------------|---------------------|----------------------|---------------------|---------------------|----8------10----8----|---------------------|----8------8----8----|----8------10----8----|----8------8----8/---|----8------8----8----|----------------------|----8------8----8/---|---------------------|----------------------|----------------6/---|
-------------------------------|-----------------------------|-------------------------------|-----------------------------|-------------------------------|-------------8--8--10--10----|--8--10--10--8--10--10--8--10--|--10--8--10--8--8--10--10----|--8--10--10--8--10--10--8--10--|--10--8--10--6--6--8---8-----|--6--8---8---6--8---8---6--8---|--8---6--8-------------------|
----------------------------------|----------------------------------|----------------------------------|----------------------------------|----------------------------------|----------------------------------|--10--10--10--10--10--10--10--10--|--10--10--10--10--10--10--10--10--|--10--10--10--10--10--10--10--10--|--10--10--10--10--10--10--10--10--|--8---8---8---8---8---8---8---8---|--8---8---8---8---8---8---8---8---|
--------------------------|-------------------------------|--------------------------|-------------------------------|--------------------------|--10--10--10--10--10--8--8--8--|--8--8--8--8--8--8--8--8--|--10--10--10--10--10--8--8--8--|--8--8--8--8--8--8--8--8--|--8---8---8---8---8---6--6--6--|--6--6--6--6--6--6--6--6--|-------------------------------|
----------------------------------|----------------------------------|----------------------------------|----------------------------------|----------------------------------|----------------------------------|--10--10--10--10--10--10--10--10--|--10--10--10--10--10--10--10--10--|--10--10--10--10--10--10--10--10--|--10--10--10--10--10--10--10--10--|--8---8---8---8---8---8---8---8---|--8---8---8---8---8---8---8---8---|
--------------------------|-------------------------------|--------------------------|-------------------------------|--------------------------|--10--10--10--10--10--8--8--8--|--8--8--8--8--8--8--8--8--|--10--10--10--10--10--8--8--8--|--8--8--8--8--8--8--8--8--|--8---8---8---8---8---6--6--6--|--6--6--6--6--6--6--6--6--|-------------------------------|
----------------------------------|----------------------------------|----------------------------------|----------------------------------|----------------------------------|----------------------------------|--10--10--10--10--10--10--10--10--|--10--10--10--10--10--10--10--10--|--10--10--10--10--10--10--10--10--|--10--10--10--10--10--10--10--10--|--8---8---8---8---8---8---8---8---|--8---8---8---8---8---8---8---8---|
--------------------------|-------------------------------|--------------------------|-------------------------------|--------------------------|--10--10--10--10--10--8--8--8--|--8--8--8--8--8--8--8--8--|--10--10--10--10--10--8--8--8--|--8--8--8--8--8--8--8--8--|--8---8---8---8---8---6--6--6--|--6--6--6--6--6--6--6--6--|-------------------------------|
----------------------------------|----------------------------------|----------------------------------|----------------------------------|----------------------------------|----------------------------------|--10--10--10--10--10--10--10--10--|--10--10--10--10--10--10--10--10--|--10--10--10--10--10--10--10--10--|--10--10--10--10--10--10--10--10--|--8---8---8---8---8---8---8---8---|--8---8---8---8---8---8---8---8---|
--------------------------|-------------------------------|--------------------------|-------------------------------|--------------------------|--10--10--10--10--10--8--8--8--|--8--8--8--8--8--8--8--8--|--10--10--10--10--10--8--8--8--|--8--8--8--8--8--8--8--8--|--8---8---8---8---8---6--6--6--|--6--6--6--6--6--6--6--6--|-------------------------------|
--------------------------|---------------------|--------------------|--------------------------|---------------------|--------------------|--8--8--8--8--8--8--8--8--|-------------8--8----|--------------------|--8--8--8--8--8--8--8--8--|--8----------8--8----|--10----------------|--6--6--6--6--6--6--6--6--|--8----------6--6----|--10----------------|--------------------------|--6------------------|--8-----------------|
------------------|-------------------|--------------------|------------------|-------------------|--------------------|------------------|-------------------|--10----------------|------------------|--8----------------|--10----------------|------------------|--8----------------|--8-----------------|------------------|--6----------------|--------------------|
--------------------|------------------|-------------------|--------------------|------------------|-------------------|--------------------|------------------|-------------------|--10----------------|------------------|--8----------------|--10----------------|------------------|--8----------------|--8-----------------|------------------|--6----------------|
--------------------|--------------------|------------------|--------------------|--------------------|------------------|--10----------------|--------------------|------------------|--10----------------|--10----------------|------------------|--8-----------------|--10----------------|------------------|--------------------|--8-----------------|------------------|
-------------------|--------------------|--------------------|-------------------|--------------------|--------------------|-------------------|--10----------------|--------------------|--8----------------|--10----------------|--10----------------|--8----------------|--8-----------------|--10----------------|--6----------------|--------------------|--8-----------------|
------------------|-------------------|--------------------|-------------------|------------------|-------------------|--------------------|-------------------|------------------|-------------------|--10----------------|--8----------------|------------------|--8----------------|--10----------------|--8----------------|------------------|--8----------------|--8-----------------|--6----------------|------------------|--6----------------|--------------------|-------------------|
----------------------|--------------------|--------------------|----------------------|--------------------|--------------------|-------------8--8-----|--------------------|--------------------|--8----------8--8-----|--10----------------|------10/-----------|--8----------6--6-----|--10----------------|------10/-----------|--6----------------8--|--8-----------------|------8/------------|
--------------------||--13/---------------||--12/---------------||--10/---------------||--------------------||--------------------||
Please rate this tab:
x1.0