Billy Talent - Devil On My Shoulder tab version 1

Date July, 13, 2009
23:49

Awesome Band with an awesome Song hope that ill get it right.


Band : Billy Talent
Album : Billy Talent III
Titel : Devil on my Shoulder
Year : 2009


 

Tuning: Drop D




Intro :


|---------------------|------------------------------||-------10---------8--|------------------------------||-------7----------x--|------------------------------||-------7----------8--|------------------------------||-------8----------7--|-------5-3p0---------5h0-8-5--||-0-0-0------0-0-0----|-0-0---------3h5/7p0----------| x3
|---------------------|-------------------------------||-------10---------8--|-------------------------------||-------7----------x--|-------------------------------||-------7----------8--|-------------------------------||-------8----------7--|-------5-3h0---------5h0-8-----||-0-0-0------0-0-0----|-0-0---------3h5/7p0-------5~~-|
Verse :
|------------------|---------------------------||-2---------x-3----|-----6---------------------||-2---------x-3----|-----6---------------------||-2---------x-3----|-----6---------------------||-0---------x-1----|-----4-----------5h0-8-----| x2|------------------|----------0--7h0-------5~~-|
|------------------|---------------------------||-2--xxx---3--xxx--|----6--xx------------------||-2--xxx---3--xxx--|----6--xx------------------||-2--xxx---3--xxx--|----6--xx------------------||-0--xxx---1--xxx--|----4--xx--------5h0-8-----||------------------|----------0--7h0-------5~~-|
|-----------------------|-------------5--5--5--5--||-2----xx--x-3----xx--x-|--6----xx--x-6--6--6--6--||-2----xx--x-3----xx--x-|--6----xx--x-5--5--5--5--||-2----xx--x-3----xx--x-|--6----xx--x-7--7--7--7--||-0----xx--x-1----xx--x-|--4----xx--x-5--5--5--5--||-----------------------|-------------------------|
|-------------10-10-10-10-||--8--8--8----10-10-10-10-||--x--x--x----7--7--7--7--||--8--8--8----7--7--7--7--||--7--7--7----8--8--8--8--||-------------------------|
Pre Chorus :
|----------------------------|------------------------------|----------------------------||--------------------------6-|-----------------------6--6-6-|--------------------------6-||--------------------------5-|-----------------------5--5-5-|--------------------------5-||--------------------------4-|-----------------------4--4-4-|--------------------------4-||----------------------5---5-|-----------------------5--5-5-|----------------------5---5-||--5-5-5-----5-3h5/7p0-----0-|--5-5-5-----5-3h5/7p0--0--0-0-|--5-5-5-----5-3h5/7p0-----0-|
|-------------------------------------------||-------------------------------------------||--9-9-9-9-9-9-9-9--10-10-10-10-10-10-10-10-||--7-7-7-7-7-7-7-7--8--8--8--8--8--8--8--8--||--7-7-7-7-7-7-7-7--8--8--8--8--8--8--8--8--||--7-7-7-7-7-7-7-7--8--8--8--8--8--8--8--8--|
Chorus :
|--5---------------|------------------------------||--6---------------|------------------------------||--5---------------|------------------------------||--7-0-3-7-5--5--5-|------------------------------||--5-0-3-7-5--5--5-|---------3p0----------5p3p0---||----0-3-7-5--5--5-|-7-7-7-7-----3--0---0-------0-|
|--------------------------------------------||--------------------------------------------||--9-9-9-9-9-9-9-9--10-10-10-10-10-10--------||--7-7-7-7-7-7-7-7--8--8--8--8--8--8---------||--7-7-7-7-7-7-7-7--8--8--8--8--8--8---------||--7-7-7-7-7-7-7-7--8--8--8--8--8--8---12///-|
Verse Chorus ____________________________________________ So thats it i hope you like it. Im working right now on the solo !!!
Tap to rate this tab
 
# A B C D E F G H I J K L M N O P Q R S T U V W X Y Z