Billy Talent – Pins And Needles tab ver. 3

Tempo = 148
Electric Guitar

Leave the bottom D string ringing throughout the intro and outro

Legend
L - tied note
x - dead note
h - hammer on/pull off
b - bend
s - slide
~ - vibrato
g - ghost note
> - accentuated note
t - trill
M - palm mute
. - staccato
P - popping (bass)
S - slapping (bass)
+ - tapping
W - wide vibrato
< - fade in
w - whammy bar
= - tremolo picking
v - brush up
^ - brush down
V - pick stroke up
n - pick stroke down


E ||---------------------------|--------------5-------------|B ||---------------------------|--6-----8--------6----------|G ||o--------------------------|--7-----9-----------7s------|D ||o------------7-----8-------|----------------------------|A ||-------5h-6----------------|----------------------------|D ||-5--------------5-----0----|-----0-----0----------------|
----------------------------|---------------------------||-------|-------|----------------------------|---------------------------||-------|-------|----------------------------|--------------------5-----o||-------|-------|--------------------3-------|--------3h-5h-7-----------o||--5----|--0----|--------1h-3h-5-------------|---------------------------||--5----|--0----|--1--------------1----------|--0--------------0---------||--5----|--0----|
-------|-------|-------|-------|----------------------------|-------|-------|-------|-------|----------------------------|-------|-------|-------|-------|----------------------------|--1----|--0----|--5----|--0----|--------------------3-------|--1----|--0----|--5----|--0----|--------1h-3h-5-------------|--1----|--0----|--5----|--0----|--1--------------1----------|
----------------------------|----------------------------|----------------------------|--4-----------3h-4----------|--------------------5-------|--5-----5-----------5-------|--------3h-5h-7-------------|--5--------5-----------5----|----------------------------|--3-------------------------|--0--------------0-----0----|----------------------------|
----------------------------|----------------------------|----------------------------|----------------------------|--------------------5-------|----------------------------|--------7-----5h-7--3-------|-----------5--8--7--5-------|----------------------------|--------5-------------------|--3--------3----------------|--3s-5-----------------5----|
----------------------------|----------------------------|----------------------------|----------------------------|--------5-------------------|----------------------------|--7-----------8-----7-------|-----------1--5--3--1-------|----------------------------|--------1--------------0----|-----0-----0-----0----------|--1-------------------------|
----------------------------|-------|-------||---------------------------|--------------------3-------|--4----|-------||---------------------------|--------------3s-5----------|--5----|-------||o--------------------------|--------3-------------------|--5----|--7----||o5-----5-----7--5--8--0----|--1-------------------------|--3----|--3----||-5-----5h-6-----5-----0----|----------------------------|-------|--3----||-5-----5--------5-----0----|
--------------5-------------|----------------------------|--6-----8--------6----------|----------------------------|--7-----9-----------7s------|----------------------------|-----0-----0----------------|--1-----1--------1--3-------|-----0-----0----------------|--1-----1h-3h-5--1----------|-----0-----0----------------|--1-----1--------1----------|
---------------------------||-------|-------|-------|-------|-------|-------|---------------------------||-------|-------|-------|-------|-------|-------|--------------------5-----o||-------|-------|-------|-------|-------|-------|--0-----3h-5h-7--0--------o||--5----|--0----|--1----|--0----|--5----|--0----|--0-----0--------0---------||--5----|--0----|--1----|--0----|--5----|--0----|--0-----0--------0---------||--5----|--0----|--1----|--0----|--5----|--0----|
----------------------------|----------------------------|-------|-------|----------------------------|----------------------------|-------|-------|----------------------------|--------------------5-------|-------|-------|--1-----1--------1--3-------|--0-----3h-5h-7--0----------|--5----|--0----|--1-----1h-3h-5--1----------|--0-----0--------0----------|--5----|--0----|--1-----1--------1----------|--0-----0--------0----------|--5----|--0----|
-------|-------|-------|-------|----------------------------|-------|-------|-------|-------|----------------------------|-------|-------|-------|-------|----------------------------|--1----|--0----|--5----|--0----|--1-----1--------1--3-------|--1----|--0----|--5----|--0----|--1-----1h-3h-5--1----------|--1----|--0----|--5----|--0----|--1-----1--------1----------|
----------------------------|----------------------------|----------------------------|--4-----------3h-4----------|--------------------5-------|--5-----5-----------5-------|--0-----3h-5h-7--0-----0----|--5--------5-----------5----|--0-----0--------0-----0----|--3-------------------------|--0-----0--------0-----0----|----------------------------|
----------------------------|----------------------------|----------------------------|----------------------------|--------------------5-------|----------------------------|--3-----7--3--5h-7--3-------|--3s-5-----5--8--7--5-------|--3--------3----------------|--3s-5--5-------------------|--3--------3----------------|--3s-5-----------------5----|
----------------------------|----------------------------|----------------------------|----------------------------|--------5-------------------|----------------------------|--7-----------8-----7-------|--1-----1-----5--3--1-------|-----0-----0-----0----------|--1-----1--------------0----|-----0-----0-----0----------|--1-----1-------------------|
----------------------------|-------|-------|----------------------------|--------------------3-------|--4----|-------|----------------------------|--------------3s-5----------|--5----|-------|----------------------------|--------3-------------------|--5----|--7----|--5-----5-----7--5--8--0----|--1-------------------------|--3----|--3----|--5-----5h-6-----5-----0----|----------------------------|-------|--3----|--5-----5--------5-----0----|
--------------5-------------|----------------------------|--6-----8--------6----------|----------------------------|--7-----9-----------7s------|----------------------------|-----0-----0----------------|--1-----1--------1--3-------|-----0-----0----------------|--1-----1h-3h-5--1----------|-----0-----0----------------|--1-----1--------1----------|
----------------------------||-6--6--6--6--6--6--6--6----|----------------------------||-8--8--8--8--8--8--8--8----|--------------------5-------||o8--8--8--8--8--8--8--8----|--0-----3h-5h-7--0----------||o8--8--8--8--8--8--8--8----|--0-----0--------0----------||-6--6--6--6--6--6--6--6----|--0-----0--------0-----0----||---------------------------|
--6--6--6--6--6--6--6--6----|----------------------------|---------------||--8--8--8--8--8--8--8--8----|----------------------------|---------------||--7--7--7--7--7--7--7--7----|--------------------5-------|--3--3--2-----o||--5--5--5--5--5--5--5--5----|--3--3--7--3--5h-7--3-------|--1--1--1--3--o||--5--5--5--5--5--5--5--5----|--3--3-----3--3-----3-------|--1--1--1--1---||--5--5--5--5--5--5--5--5----|--3--3-----3--3-----3-------|--1--1--1--1---||
----------------------------|----------------------------|--4-----------3h-4----------|----------------------------|--5-----5-----------5-------|--------------------5-------|--5--------5-----------5----|--3-----7--3--5h-7--3-------|--3-------------------------|--3--------3----------------|----------------------------|--3--------3----------------|
----------------------------|----------------------------|----------------------------|----------------------------|----------------------------|--------5-------------------|--3s-5-----5--8--7--5-------|--7-----------8-----7-------|--3s-5--5-------------------|-----0-----0-----0----------|--3s-5-----------------5----|-----0-----0-----0----------|
----------------------------|----------------------------|----------------------------|--------------------3-------|----------------------------|--------3-----3s-5----------|--1-----1-----5--3--1-------|----------------------------|--1-----1--------------0----|--1-------------------------|--1-----1-------------------|----------------------------|
----------------------------|----------------------------|--4-----4-----3h-4----------|----------------------------|--5-----5-----------5-------|--------------------5-------|--5-----5--------------5----|--3-----7--3--5h-7--3-------|--3-----3-------------------|--3--------3----------------|----------------------------|--3--------3----------------|
----------------------------|----------------------------|----------------------------|----------------------------|----------------------------|--------5-------------------|--3s-5-----5--8--7--5-------|--7-----------8-----7-------|--3s-5--5-------------------|-----0-----0-----0----------|--3s-5-----------------5----|-----0-----0-----0----------|
----------------------------|----------------------------|-------|-------|----------------------------|--------------------3-------|--4----|-------|----------------------------|--------3-----3s-5----------|--5----|-------|--1-----1-----5--3--1-------|----------------------------|--5----|--7----|--1-----1--------------0----|--1-------------------------|--3----|--3----|--1-----1-------------------|----------------------------|-------|--3----|
----------------------------|--------------5-------------|----------------------------|--6-----8--------6----------|----------------------------|--7-----9-----------7s------|--------------7-----8-------|----------------------------|--------5h-6----------------|----------------------------|--5--------------5-----0----|-----0-----0----------------|
----------------------------|----------------------------|----------------------------|----------------------------|----------------------------|--------------------5-------|--------------------3-------|--------3h-5h-7-------------|--------1h-3h-5-------------|----------------------------|--1--------------1----------|--0--------------0----------|
----------------------------|--------------5-------------|----------------------------|--6-----8--------6----------|----------------------------|--7-----9-----------7s------|--------------7-----8-------|----------------------------|--------5h-6----------------|----------------------------|--5--------------5-----0----|-----0-----0----------------|
----------------------------|----------------------------|-------|-------||----------------------------|----------------------------|-------|-------||----------------------------|--------------------5-------|-------|-------||--------------------3-------|--------3h-5h-7-------------|--5L---|--5----||--------1h-3h-5-------------|----------------------------|--5L---|--5----||--1--------------1----------|--0--------------0----------|--5L---|--5----||
Please rate this tab:
x1.0