Biohazard - Sellout tab

Biohazard - Sellout
Album: Uncivilization
Tuning: C G C F A D
Tabbed By: Dean K. (projectwyze13@hotmail.com)


|--------------------------------------------------------||--------------------------------------------------------||--------------------------------------------------------||--------------------------------------------------------||--------------------------------------------------------||-1-0-0--3-1-0-4-3-1-0--3-1-0-4-3-1-0---0----------------| 2x 1x
|--------------------------------------------------------||--------------------------------------------------------||--------------------------------------------------------||--------------------------------------------------------||-1-0-0--3-1-0-4-3-1-0--3-1-0-4-3-1-0----0---------------||-1-0-0--3-1-0-4-3-1-0--3-1-0-4-3-1-0----0---------------| 2x 1x
|--------------------------------------------------------||--------------------------------------------------------||--------------------------------------------------------||----------------------------------------3--6------------||-1-0-0--3-1-0-4-3-1-0--3-1-0-4-3-1-0----1--4------------||-1-0-0--3-1-0-4-3-1-0--3-1-0-4-3-1-0--------------------| 2x 1x
|--------------------------------------------------------||--------------------------------------------------------||--------------------------------------------------------||--------------------------------------------------------||-1-0-0--3-1-0-4-3-1-0--3-1-0-4-3-1-0----0---------------||-1-0-0--3-1-0-4-3-1-0--3-1-0-4-3-1-0----0---------------| 2x 1x
|--------------------------------------------------------||--------------------------------------------------------||--------------------------------------------------------||----------------------------------------3--6------------||-1-0-0--3-1-0-4-3-1-0--3-1-0-4-3-1-0----1--4------------||-1-0-0--3-1-0-4-3-1-0--3-1-0-4-3-1-0--------------------| 2x 1x
|--------------------------------------------------------||--------------------------------------------------------||--------------------------------------------------------||--------------------------------------------------------||-5--------1------6--3--0--3--6----0----6--0--3--6--0----||-5--------1------6--3--0--3--6----0----6--0--3--6--0----|
|--------------------------------------------------------||--------------------------------------------------------||--------------------------------------------------------||-------------------------------x---x--------------------||-6--3--0--3--6----0----6--0----x---x------5--------1----||-6--3--0--3--6----0----6--0----x---x------5--------1----|
|--------------------------------------------------------||--------------------------------------------------------||--------------------------------------------------------||--------------------------------------------------------||--------------------------------------------------------||-1-0-0--3-1-0-4-3-1-0--3-1-0-4-3-1-0---0----------------| 2x 1x
|--------------------------------------------------------||--------------------------------------------------------||--------------------------------------------------------||--------------------------------------------------------||-1-0-0--3-1-0-4-3-1-0--3-1-0-4-3-1-0----0---------------||-1-0-0--3-1-0-4-3-1-0--3-1-0-4-3-1-0----0---------------| 2x 1x
|--------------------------------------------------------||--------------------------------------------------------||--------------------------------------------------------||----------------------------------------3--6------------||-1-0-0--3-1-0-4-3-1-0--3-1-0-4-3-1-0----1--4------------||-1-0-0--3-1-0-4-3-1-0--3-1-0-4-3-1-0--------------------| 2x 1x
|--------------------------------------------------------||--------------------------------------------------------||--------------------------------------------------------||--------------------------------------------------------||-1-0-0--3-1-0-4-3-1-0--3-1-0-4-3-1-0----0---------------||-1-0-0--3-1-0-4-3-1-0--3-1-0-4-3-1-0----0---------------| 2x 1x
|--------------------------------------------------------||--------------------------------------------------------||--------------------------------------------------------||----------------------------------------3--6------------||-1-0-0--3-1-0-4-3-1-0--3-1-0-4-3-1-0----1--4------------||-1-0-0--3-1-0-4-3-1-0--3-1-0-4-3-1-0--------------------| 2x 1x
|--------------------------------------------------------||--------------------------------------------------------||--------------------------------------------------------||--------------------------------------------------------||-5--------1------6--3--0--3--6----0----6--0--3--6--0----||-5--------1------6--3--0--3--6----0----6--0--3--6--0----|
|--------------------------------------------------------||--------------------------------------------------------||--------------------------------------------------------||-------------------------------x---x--------------------||-6--3--0--3--6----0----6--0----x---x------5--------1----||-6--3--0--3--6----0----6--0----x---x------5--------1----|
|--------------------------------------------------------||--------------------------------------------------------||--------------------------------------------------------||--------------------------------------------------------||-6-3-0-3-6--0--6-0-3-6-0--6-3-0-3-6--0--6--0----x---x---||-6-3-0-3-6--0--6-0-3-6-0--6-3-0-3-6--0--6--0----x---x---|
|--------------------------------------------------------||--------------------------------------------------------||--------------------------------------------------------||--------------------------------------------------------||-6-3-0-3-6--0--6-0-3-6-0--6-3-0-3-6--0--6--0----x---x---||-6-3-0-3-6--0--6-0-3-6-0--6-3-0-3-6--0--6--0----x---x---|
|--------------------------------------------------------||--------------------------------------------------------||--------------------------------------------------------||--------------------------------------------------------||-6-3-0-3-6--0--6-0-3-6-0--6-3-0-3-6--0--6--0----x---x---||-6-3-0-3-6--0--6-0-3-6-0--6-3-0-3-6--0--6--0----x---x---|
|--------------------------------------------------------||--------------------------------------------------------||--------------------------------------------------------||--------------------------------------------------------||-6-3-0-3-6--0--6-0-3-6-0--6-3-0-3-6--0--6--0----x---x---||-6-3-0-3-6--0--6-0-3-6-0--6-3-0-3-6--0--6--0----x---x---|
|----------------------------------------------------------------||----------------------------------------------------------------||----------------------------------------------------------------||----------------------------------------------------------------||-----------------------------------------------0--3---0--3------||-0-0-0--6-0--0-6-0-0-0--0-0-0-6-0--0--0-3--0-3------------------|
|-------------------------------------------------------||-------------------------------------------------------||-------------------------------------------------------||-------------------------------------------------------||-0-0-0--6-0--0-6-0-0-0--0-0-0-6-0--0--0-3--0-3---------||-0-0-0--6-0--0-6-0-0-0--0-0-0-6-0--0--0-3--0-3---------|
|-------------------------------------------------------||-------------------------------------------------------||-------------------------------------------------------||-------------------------------------------------------||-0-0-0--6-0--0-6-0-0-0--0-0-0-6-0--0--0-3--0-3---------||-0-0-0--6-0--0-6-0-0-0--0-0-0-6-0--0--0-3--0-3---------|
|-------------------------------------------------------||-------------------------------------------------------||-------------------------------------------------------||-------------------------------------------------------||-0-0-0--6-0--0-6-0-0-0--0-0-0-6-0--0---0-3--0-3--------||-0-0-0--6-0--0-6-0-0-0--0-0-0-6-0--0---0-3--0-3--------| PM---------------------------------|
|-------------------------------------------------------||-------------------------------------------------------||-------------------------------------------------------||-------------------------------------------------------||-0-0-0--6-0--0-6-0-0-0--0-0-0-6-0--0---0-3--0-3--------||-0-0-0--6-0--0-6-0-0-0--0-0-0-6-0--0---0-3--0-3--------| PM---------------------------------|
|-------------------------------------------------------||-------------------------------------------------------||-------------------------------------------------------||-------------------------------------------------------||-0-0-0--6-0--0-6-0-0-0--0-0-0-6-0--0--0-3--0-3---------||-0-0-0--6-0--0-6-0-0-0--0-0-0-6-0--0--0-3--0-3---------|
|-------------------------------------------------------||-------------------------------------------------------||-------------------------------------------------------||-------------------------------------------------------||-0-0-0--6-0--0-6-0-0-0--0-0-0-6-0--0--0-3--0-3---------||-0-0-0--6-0--0-6-0-0-0--0-0-0-6-0--0--0-3--0-3---------|
|-------------------------------------------------------||-------------------------------------------------------||-------------------------------------------------------||-------------------------------------------------------||-0-0-0--6-0--0-6-0-0-0--0-0-0-6-0--0---0-3--0-3--------||-0-0-0--6-0--0-6-0-0-0--0-0-0-6-0--0---0-3--0-3--------| PM---------------------------------|
|-------------------------------------------------------||-------------------------------------------------------||-------------------------------------------------------||-------------------------------------------------------||-0-0-0--6-0--0-6-0-0-0--0-0-0-6-0--0---0-3--0-3--------||-0-0-0--6-0--0-6-0-0-0--0-0-0-6-0--0---0-3--0-3--------| PM---------------------------------|
|-------------------------------------------------------||-------------------------------------------------------||-------------------------------------------------------||-------------------------------------------------------||-0-0-0--6-0--0-6-0-0-0--0-0-0-6-0--0--0-3--0-3---------||-0-0-0--6-0--0-6-0-0-0--0-0-0-6-0--0--0-3--0-3---------|
|-------------------------------------------------------||-------------------------------------------------------||-------------------------------------------------------||-------------------------------------------------------||-0-0-0--6-0--0-6-0-0-0--0-0-0-6-0--0--0-3--0-3---------||-0-0-0--6-0--0-6-0-0-0--0-0-0-6-0--0--0-3--0-3---------|
|-------------------------------------------------------||-------------------------------------------------------||-------------------------------------------------------||-------------------------------------------------------||-5--------1------6--3--0--3--6----0----6--0--3--6--0---||-5--------1------6--3--0--3--6----0----6--0--3--6--0---|
|-------------------------------------------------------||-------------------------------------------------------||-------------------------------------------------------||-------------------------------x---x-------------------||-6--3--0--3--6----0----6--0----x---x------5--------1---||-6--3--0--3--6----0----6--0----x---x------5--------1---|
|-------------------------------------------------------||-------------------------------------------------------||-------------------------------------------------------||-------------------------------------------------------||-6-3-0-3-6--0--6-0-3-6-0--6-3-0-3-6--0--6--0----x---x--||-6-3-0-3-6--0--6-0-3-6-0--6-3-0-3-6--0--6--0----x---x--|
|-------------------------------------------------------||-------------------------------------------------------||-------------------------------------------------------||-------------------------------------------------------||-6-3-0-3-6--0--6-0-3-6-0--6-3-0-3-6--0--6--0----x---x--||-6-3-0-3-6--0--6-0-3-6-0--6-3-0-3-6--0--6--0----x---x--|
|-------------------------------------------------------||-------------------------------------------------------||-------------------------------------------------------||-------------------------------------------------------||-6-3-0-3-6--0--6-0-3-6-0--6-3-0-3-6--0--6--0----x---x--||-6-3-0-3-6--0--6-0-3-6-0--6-3-0-3-6--0--6--0----x---x--|
|-------------------------------------------------------||-------------------------------------------------------||-------------------------------------------------------||-------------------------------------------------------||-6-3-0-3-6--0--6-0-3-6-0--6-3-0-3-6--0--6-0--3--3------||-6-3-0-3-6--0--6-0-3-6-0--6-3-0-3-6--0--6-0--3--3------|
Tap to rate this tab
 
# A B C D E F G H I J K L M N O P Q R S T U V W X Y Z