Black Crowes - Come On tab version 1

The Black Crowes: Come On.
 Tabbed by Zack D; zack200x@yahoo.com.
  
The Black Crowes: Come On
words & music by Rich & Chris Robinson
Warner-Tamerlane Publishing Corp. (BMI)
From the album \"Lions\" (V2 Records Inc., 2001)
           

This is a complete tab score for \"Come on\" by the Black Crowes 
from their latest album \"Lions\".

-song structure:

1) intro
2) verse 1
3) pre-chorus
4) chorus
5) verse 2
6) pre-chorus
7) chorus
8) interlude
9) chorus
10) outro

p= pull off
h= hammer on

-guitar 1 (complete) intro F#5 E7#9 A5 G5 E||--------|---------------------------------|B||--------|------8--8----8--8------14-12-12-|G||--------|------7--7----7--7------14-12-12-|D||---4----|------6--6----6--6------14-12-12-|A||---4----|------7--7----7--7---------------|E||---2----|--0-0-------0-------0-0----------|
(w/ gtr. 2 lick) ||
\\ / \\/---------------------------------------------|----8--8------14-12-12----8--8------14-12-12-|----7--7------14-12-12----7--7------14-12-12-|----6--6------14-12-12----6--6------14-12-12-|----7--7------------------7--7---------------|--0-------0-0-----------0-------0-0----------|
E5 D5 B5 A5 ---------------------------------------------|----8--8------14---------9-----7-----4-----2-|----7--7------14---------9-----7-----4-----2-|----6--6------14---------9-----7-----4-----2-|----7--7-----------------7-----5-----2-----0-|--0-------0-0--------------------------------|
verse 1 A5---------------------------------------------|--2-2-2-2-2--------------2-2-2-2-2-----------|--2-2-2-2-2--1--1--------2-2-2-2-2--1--------|--2-2-2-2-2----2--2------2-2-2-2-2----2-0-2--|--0-0-0-0-0--------------0-0-0-0-0-----------|-----------------------0---------------------|
---------------------------------------------|---2-2-2-2-2---------------------------------|---2-2-2-2-2--1--1---------------------------|---2-2-2-2-2----2--2-----------------------2-|---0-0-0-0-0-------------4h5p4h5p4h5p4-2-0---|-0---------------------0---------------------|
---------------------------------------------|---2-2-2-2-2--------------2-2-2-2-2----------|---2-2-2-2-2--1--1--------2-2-2-2-2--1-------|---2-2-2-2-2----2--2------2-2-2-2-2----2-0-2-|---0-0-0-0-0--------------0-0-0-0-0----------|-0----------------------0--------------------|
---------------------------------------------|---2-2-2-2-2---------------------------------|---2-2-2-2-2--1--1---------------------------|---2-2-2-2-2----2--2-----------------------2-|---0-0-0-0-0-------------4h5p4h5p4h5p4-2-0---|-0---------------------0---------------------|
---------------------------------------------|---2-2-2-2-2--------------2-2-2-2-2----------|---2-2-2-2-2--1--1--------2-2-2-2-2--1-------|---2-2-2-2-2----2--2------2-2-2-2-2----2-0-2-|---0-0-0-0-0--------------0-0-0-0-0----------|-0----------------------0--------------------|
---------------------------------------------|---2-2-2-2-2---------------------------------|---2-2-2-2-2--1--1---------------------------|---2-2-2-2-2----2--2-----------------------2-|---0-0-0-0-0-------------4h5p4h5p4h5p4-2-0---|-0---------------------0---------------------|
---------------------------|------------------------0--|------------------------0--|-------------------2-------|---4h5p4h5p4h5p4-2---------|-0-------------------0-----|
prechorus (w/ gtr. 2 lick) G5 A5 ---------------------------------------------|-12-12--12-12--12-14----12-12--12-12--12-14--|-12-12--12-12--12-14----12-12--12-12--12-14--|-12-12--12-12--12-14----12-12--12-12--12-14--|---------------------------------------------|---------------------------------------------|
chorus E5 D5 A5 G5 ---------------------------------------------------------------------|---------------------------------------------------------------------|-9-9-9-9-9-9-9-9--7-7-7-7-7-7--14-14-14-14-14-14--12-12-12-12-12-12--|-9-9-9-9-9-9-9-9--7-7-7-7-7-7--14-14-14-14-14-14--12-12-12-12-12-12--|-7-7-7-7-7-7-7-7--5-5-5-5-5-5--12-12-12-12-12-12--10-10-10-10-10-10--|---------------------------------------------------------------------|
---------------------------------------------------------------------|---------------------------------------------------------------------|-9-9-9-9-9-9-9-9--7-7-7-7-7-7--14-14-14-14-14-14--12-12-12-12-12-12--|-9-9-9-9-9-9-9-9--7-7-7-7-7-7--14-14-14-14-14-14--12-12-12-12-12-12--|-7-7-7-7-7-7-7-7--5-5-5-5-5-5--12-12-12-12-12-12--10-10-10-10-10-10--|---------------------------------------------------------------------|
---------------------------------------------------------------------|---------------------------------------------------------------------|-9-9-9-9-9-9-9-9--7-7-7-7-7-7--14-14-14-14-14-14--12-12-12-12-12-12--|-9-9-9-9-9-9-9-9--7-7-7-7-7-7--14-14-14-14-14-14--12-12-12-12-12-12--|-7-7-7-7-7-7-7-7--5-5-5-5-5-5--12-12-12-12-12-12--10-10-10-10-10-10--|---------------------------------------------------------------------|
E5 D5 B5 A5 ------------------------|------------------------|---9-----7-----4------2-|---9-----7-----4------2-|---7-----5-----2------0-|------------------------|
verse 2 A5---------------------------------------------|--2-2-2-2-2--------------2-2-2-2-2-----------|--2-2-2-2-2--1--1--------2-2-2-2-2--1--------|--2-2-2-2-2----2--2------2-2-2-2-2----2-0-2--|--0-0-0-0-0--------------0-0-0-0-0-----------|-----------------------0---------------------|
---------------------------------------------|---2-2-2-2-2---------------------------------|---2-2-2-2-2--1--1---------------------------|---2-2-2-2-2----2--2-----------------------2-|---0-0-0-0-0-------------4h5p4h5p4h5p4-2-0---|-0---------------------0---------------------|
---------------------------------------------|---2-2-2-2-2--------------2-2-2-2-2----------|---2-2-2-2-2--1--1--------2-2-2-2-2--1-------|---2-2-2-2-2----2--2------2-2-2-2-2----2-0-2-|---0-0-0-0-0--------------0-0-0-0-0----------|-0----------------------0--------------------|
---------------------------------------------|---2-2-2-2-2---------------------------------|---2-2-2-2-2--1--1---------------------------|---2-2-2-2-2----2--2-----------------------2-|---0-0-0-0-0-------------4h5p4h5p4h5p4-2-0---|-0---------------------0---------------------|
---------------------------|------------------------0--|------------------------0--|-------------------2-------|---4h5p4h5p4h5p4-2---------|-0-------------------0-----|
prechorus (w/ gtr. 2 lick) G5 A5 ---------------------------------------------|-12-12--12-12--12-14----12-12--12-12--12-14--|-12-12--12-12--12-14----12-12--12-12--12-14--|-12-12--12-12--12-14----12-12--12-12--12-14--|---------------------------------------------|---------------------------------------------|
chorus
E5 D5 A5 G5 ---------------------------------------------------------------------|---------------------------------------------------------------------|-9-9-9-9-9-9-9-9--7-7-7-7-7-7--14-14-14-14-14-14--12-12-12-12-12-12--|-9-9-9-9-9-9-9-9--7-7-7-7-7-7--14-14-14-14-14-14--12-12-12-12-12-12--|-7-7-7-7-7-7-7-7--5-5-5-5-5-5--12-12-12-12-12-12--10-10-10-10-10-10--|---------------------------------------------------------------------|
---------------------------------------------------------------------|---------------------------------------------------------------------|-9-9-9-9-9-9-9-9--7-7-7-7-7-7--14-14-14-14-14-14--12-12-12-12-12-12--|-9-9-9-9-9-9-9-9--7-7-7-7-7-7--14-14-14-14-14-14--12-12-12-12-12-12--|-7-7-7-7-7-7-7-7--5-5-5-5-5-5--12-12-12-12-12-12--10-10-10-10-10-10--|---------------------------------------------------------------------|
---------------------------------------------------------------------|---------------------------------------------------------------------|-9-9-9-9-9-9-9-9--7-7-7-7-7-7--14-14-14-14-14-14--12-12-12-12-12-12--|-9-9-9-9-9-9-9-9--7-7-7-7-7-7--14-14-14-14-14-14--12-12-12-12-12-12--|-7-7-7-7-7-7-7-7--5-5-5-5-5-5--12-12-12-12-12-12--10-10-10-10-10-10--|---------------------------------------------------------------------|
---------------------------------------------------------------------|---------------------------------------------------------------------|-9-9-9-9-9-9-9-9--7-7-7-7-7-7--14-14-14-14-14-14--12-12-12-12-12-12--|-9-9-9-9-9-9-9-9--7-7-7-7-7-7--14-14-14-14-14-14--12-12-12-12-12-12--|-7-7-7-7-7-7-7-7--5-5-5-5-5-5--12-12-12-12-12-12--10-10-10-10-10-10--|---------------------------------------------------------------------|
interlude E5 E5 D5---------------------------------------------|---------------------------------------------|---------9------------9---7---9--------------|---------9------------9---7---9--------------|---------7------------7---5---7--------------|--5p0-0--------5p0-0-------------------------|
---------------------------------------------|---------------------------------------------|---------9------------9---7---7--------------|---------9------------9---7---7--------------|---------7------------7---5---5--------------|--5p0-0--------5p0-0-------------------------|
---------------------------------------------|---------------------------------------------|---------9------------9---7---9--------------|---------9------------9---7---9--------------|---------7------------7---5---7--------------|--5p0-0--------5p0-0-------------------------|
---------------------------------------------|---------------------------------------------|---------9------------9---7---7--------------|---------9------------9---7---7--------------|---------7------------7---5---5--------------|--5p0-0--------5p0-0-------------------------|
---------------------------------------------|---------------------------------------------|---------9------------9---7---9--------------|---------9------------9---7---9--------------|---------7------------7---5---7--------------|--5p0-0--------5p0-0-------------------------|
---------------------------------------------|---------------------------------------------|---------9------------9---7---7--------------|---------9------------9---7---7--------------|---------7------------7---5---5--------------|--5p0-0--------5p0-0-------------------------|
---------------------------------------------|---------------------------------------------|---------9------------9---7---9--------------|---------9------------9---7---9--------------|---------7------------7---5---7--------------|--5p0-0--------5p0-0-------------------------|
---------------------------------------------|---------------------------------------------|---------9------------9---7---7--------------|---------9------------9---7---7--------------|---------7------------7---5---5--------------|--5p0-0--------5p0-0-------------------------|
chorus E5 D5 A5 G5 ---------------------------------------------------------------------|---------------------------------------------------------------------|-9-9-9-9-9-9-9-9--7-7-7-7-7-7--14-14-14-14-14-14--12-12-12-12-12-12--|-9-9-9-9-9-9-9-9--7-7-7-7-7-7--14-14-14-14-14-14--12-12-12-12-12-12--|-7-7-7-7-7-7-7-7--5-5-5-5-5-5--12-12-12-12-12-12--10-10-10-10-10-10--|---------------------------------------------------------------------|
---------------------------------------------------------------------|---------------------------------------------------------------------|-9-9-9-9-9-9-9-9--7-7-7-7-7-7--14-14-14-14-14-14--12-12-12-12-12-12--|-9-9-9-9-9-9-9-9--7-7-7-7-7-7--14-14-14-14-14-14--12-12-12-12-12-12--|-7-7-7-7-7-7-7-7--5-5-5-5-5-5--12-12-12-12-12-12--10-10-10-10-10-10--|---------------------------------------------------------------------|
---------------------------------------------------------------------|---------------------------------------------------------------------|-9-9-9-9-9-9-9-9--7-7-7-7-7-7--14-14-14-14-14-14--12-12-12-12-12-12--|-9-9-9-9-9-9-9-9--7-7-7-7-7-7--14-14-14-14-14-14--12-12-12-12-12-12--|-7-7-7-7-7-7-7-7--5-5-5-5-5-5--12-12-12-12-12-12--10-10-10-10-10-10--|---------------------------------------------------------------------|
---------------------------------------------------------------------|---------------------------------------------------------------------|-9-9-9-9-9-9-9-9--7-7-7-7-7-7--14-14-14-14-14-14--12-12-12-12-12-12--|-9-9-9-9-9-9-9-9--7-7-7-7-7-7--14-14-14-14-14-14--12-12-12-12-12-12--|-7-7-7-7-7-7-7-7--5-5-5-5-5-5--12-12-12-12-12-12--10-10-10-10-10-10--|---------------------------------------------------------------------|
---------------------------------------------------------------------|---------------------------------------------------------------------|-9-9-9-9-9-9-9-9--7-7-7-7-7-7--14-14-14-14-14-14--12-12-12-12-12-12--|-9-9-9-9-9-9-9-9--7-7-7-7-7-7--14-14-14-14-14-14--12-12-12-12-12-12--|-7-7-7-7-7-7-7-7--5-5-5-5-5-5--12-12-12-12-12-12--10-10-10-10-10-10--|---------------------------------------------------------------------|
---------------------------------------------------------------------|---------------------------------------------------------------------|-9-9-9-9-9-9-9-9--7-7-7-7-7-7--14-14-14-14-14-14--12-12-12-12-12-12--|-9-9-9-9-9-9-9-9--7-7-7-7-7-7--14-14-14-14-14-14--12-12-12-12-12-12--|-7-7-7-7-7-7-7-7--5-5-5-5-5-5--12-12-12-12-12-12--10-10-10-10-10-10--|---------------------------------------------------------------------|
---------------------------------------------------------------------|---------------------------------------------------------------------|-9-9-9-9-9-9-9-9--7-7-7-7-7-7--14-14-14-14-14-14--12-12-12-12-12-12--|-9-9-9-9-9-9-9-9--7-7-7-7-7-7--14-14-14-14-14-14--12-12-12-12-12-12--|-7-7-7-7-7-7-7-7--5-5-5-5-5-5--12-12-12-12-12-12--10-10-10-10-10-10--|---------------------------------------------------------------------|
---------------------------------------------------------------------|---------------------------------------------------------------------|-9-9-9-9-9-9-9-9--7-7-7-7-7-7--14-14-14-14-14-14--12-12-12-12-12-12--|-9-9-9-9-9-9-9-9--7-7-7-7-7-7--14-14-14-14-14-14--12-12-12-12-12-12--|-7-7-7-7-7-7-7-7--5-5-5-5-5-5--12-12-12-12-12-12--10-10-10-10-10-10--|---------------------------------------------------------------------|
outro (w/ gtr. 2 lick) G5 A5 hold---------------------------------------------|-12-12--12-12--12-14----12-12--12-12--12-14--|-12-12--12-12--12-14----12-12--12-12--12-14--|-12-12--12-12--12-14----12-12--12-12--12-14--|---------------------------------------------|---------------------------------------------|
play with pick edge-----------------------------------------------|-----------------------------------------------|-----------------------------------------------|-----------------------------------------------|-----------------------------------------------|-0-0-0-0-0-0-0-0-0-0-0-0-0-0-0-0-0-0-0-0-0-0-0-|
Guitar 2 plays only one lick which appears during intro, pre-chorus and outro. (4 times altogether) -guitar 2
E||-----------------------------------------------------|B||-----------------------------------------------------|G||----------------------7-9------------------------7-9-|D||-7-9--7-9----7-9--7-9-------7-9--7-9----7-9--7-9-----|A||-----------------------------------------------------|E||-----------------------------------------------------|
-lyrics: verse 1 Are you feeling me groove you Do it get right to you Do it creep right on up in your bones Dwell it low down and greasy It come nice and easy Put a smile on your face all night long We be frightfully righteous and If you don't like us man Take your ear holes and go home Bye bye go home pre-chorus We got just what you need We brought you the remedy chorus Come on come on Let's get this thing started Come on come on Everyone Come on come on You know we're right on it Come on come on It's on verse 2 We ain't foolin' we ain't playin' We lay it down no complaining Pick it up and break some for you So get on up out your seat Because you make this scene complete And we really like to stick it to you Yes we do pre-chorus We got just what you need Remember the remedy -chorus Come on come on Let's get this thing started Come on come on Everyone Come on come on You know we're right on it Come on come on It's on :: Ultimate Guitar Archive :: http://www.ultimate-guitar.com
Tap to rate this tab
 
# A B C D E F G H I J K L M N O P Q R S T U V W X Y Z