Black Dahlia Murder – Contagion tab

#----------------------------------PLEASE NOTE---------------------------------#
#This file is the author's own work and represents their interpretation of the-#
#song. You may only use this file for private study, scholarship, or research.-#
#------------------------------------------------------------------------------#



Artist:Black Dahlia Murder
Song:Contagion
Album:Unhallowed

tabbed by:edmod2001
This is my first tab 
Any suggestions or comments you can contact me at edmod2001@hotmail.com 




        
Tuning: 


 
Play 4 times C |---------------------------------------------| G |---------------------------------------------| D#|---------------------------------------------| A#|-9----------5----------2---------------------|F |-7----------3----------2---------------------|C |-7----------3----------0---------------------|
2nd guitar last time slide notes|--------------------------||--------------------------||-7-/-10\-9-\-7-/-9-\-5----||--------------------------||-5-/-8-\-7-\-5-/-7-\-3----||--------------------------|
|------------------------------------------------------------||------------------------------------------------------------||------------------------------------------------------------||------------------------------------------------------------||-------8p7--7p5-------8p7---7p5---8p7---10p8----------------||-0-0-0-----0----0-0-0-----0-----0-----0---------------------|
|------------------------------------------------------------||------------------------------------------------------------||------------------------------------------------------------||------------------------------------------------------------||---------8p7-----7p5----------------------------------------||-0-0-0-0------0-------0-0-0--5-5-5-6-6-6-5-5-5-3-3-3--------|
|------------------------------------------------------------||------------------------------------------------------------||------------------------------------------------------------||---------------------------------------------------3-----3--||-----7p5---5----------------7p5---5----------------3-----3--||-000-----7---7-0-3h5h6--000-----7---7-0-3h5h6--000-1-000-1--|
|------------------------------------------------------------||------------------------------------------------------------||------------------------------------------------------------||---------------------------------------------------5-----5--||-----7p5---5----------------7p5---5----------------5-----5--||-000-----7---7-0-3h5h6--000-----7---7-0-3h5h6--000-3-000-3--|
Guitars 1 & 2 |------------------------------------------------------------||------------------------------------------------------------||------------------------------------------------------------||------------------------------------------------------------||-------7-----10-----9p6---------6h7p6-------6h7p6-----------||-0-0-0---0-0----0-0-------6-6-6-------6-6-6-----------------|
Guitar 1|------------------------------------------------------------||------------------------------------------------------------||------------------------------------------------------------||------------------------10-9-7-9-7----7---------------------||-------7-----10-----9p6------------10---10-9-7-9-10---------||-0-0-0---0-0----0-0-----------------------------------------|
| || Guitar 2 ||------------------------------------------------------------||------------------------------------------------------------||-------------------------9-7-5-7-5----5---------------------||-------5-----9------7p4------------9----9-7-5-7-9-----------||------------------------------------------------------------||-0-0-0---0-0----0-0-----------------------------------------|
Guitar 1|------------------------------------------------------------||------------------------------------------------------------||------------------------------------------------------------||------------------------------------------------------------||-------7-----10-----9p6---------6h7p6--------6h7p6----------||-0-0-0---0-0----0-0-------6-6-6-------6-6-6-----------------|
| || Guitar 2 | |------------------------------------------------------------||------------------------------------------------------------||------------------------------------------------------------||-------------------------------4h5p4--------4h5p4-----------||-------7-----10-----9p6-------------------------------------||-0-0-0---0-0----0-0-------6-6-6-------6-6-6-----------------|
Guitar 1|------------------------------------------------------------||------------------------------------------------------------||------------------------------------------------------------||------------------------10-9-7-9-7----7---------------------||-------7-----10-----9p6------------10---10-9-7-9-10---------||-0-0-0---0-0----0-0-----------------------------------------|
| || Guitar 2 ||------------------------------------------------------------||------------------------------------------------------------||-------------------------9-7-5-7-5----5---------------------||-------5-----9------7p4------------9----9-7-5-7-9-----------||------------------------------------------------------------||-0-0-0---0-0----0-0-----------------------------------------|
|------------------------------------------------------------||------------------------------------------------------------||------------------------------------------------------------||------------------------------------------------------------||-------8p7--7p5-------8p7---7p5---8p7---10p8----------------||-0-0-0-----0----0-0-0-----0-----0-----0---------------------|
|------------------------------------------------------------||------------------------------------------------------------||------------------------------------------------------------||------------------------------------------------------------||---------8p7-----7p5----------------------------------------||-0-0-0-0------0-------0-0-0--5-5-5-6-6-6-5-5-5-3-3-3--------|
|------------------------------------------------------------||------------------------------------------------------------||------------------------------------------------------------||---------------------------------------------------3-----3--||-----7p5---5----------------7p5---5----------------3-----3--||-000-----7---7-0-3h5h6--000-----7---7-0-3h5h6--000-1-000-1--|
|------------------------------------------------------------||------------------------------------------------------------||------------------------------------------------------------||---------------------------------------------------5-----5--||-----7p5---5----------------7p5---5----------------5-----5--||-000-----7---7-0-3h5h6--000-----7---7-0-3h5h6--000-3-000-3--|
Both Guitars|----------------------------------------||----------------------------------------||-------------------------9-------9------||-8-7-5-7-5---5-----------9-------9------||-----------8---8-7-5-6-7-7-------7------||---------------------------0-0-0---0-0-0|
|------------------------------------------||------------------------------------------||------------------------9-------9---------||-8-7-5-7-5---10-8-7-8-7-9-------9---------||-----------8------------7-------7---------||--------------------------0-0-0---0-0-0---|
Guitar during solo |------------------------------------------------------------------||------------------------------------------------------------------||------------------------------------------------------------------||-7-------7-------3-------3--5--3--2-------2-------2-------2-------||-7-------7-------3-------3--5--3--2-------2-------2-------2-------||-5-5-5-5-5-5-5-5-1-1-1-1-1--3--1--0-0-0-0-0-0-0-0-0-0-0-0-0-0-0-0-|
Play 4 times |---------------------------------------------| |---------------------------------------------| |---------------------------------------------| |-9----------5----------2---------------------||-7----------3----------2---------------------||-7----------3----------0---------------------|
2nd guitar last time slide notes|--------------------------||--------------------------||-7-/-10\-9-\-7-/-9-\-5----||--------------------------||-5-/-8-\-7-\-5-/-7-\-3----||--------------------------|
Guitars 1 & 2 |------------------------------------------------------------||------------------------------------------------------------||------------------------------------------------------------||------------------------------------------------------------||-------7-----10-----9p6---------6h7p6-------6h7p6-----------||-0-0-0---0-0----0-0-------6-6-6-------6-6-6-----------------|
Guitar 1|------------------------------------------------------------||------------------------------------------------------------||------------------------------------------------------------||------------------------10-9-7-9-7----7---------------------||-------7-----10-----9p6------------10---10-9-7-9-10---------||-0-0-0---0-0----0-0-----------------------------------------|
| || Guitar 2 ||------------------------------------------------------------||------------------------------------------------------------||-------------------------9-7-5-7-5----5---------------------||-------5-----9------7p4------------9----9-7-5-7-9-----------||------------------------------------------------------------||-0-0-0---0-0----0-0-----------------------------------------|
Guitar 1|------------------------------------------------------------||------------------------------------------------------------||------------------------------------------------------------||------------------------------------------------------------||-------7-----10-----9p6---------6h7p6--------6h7p6----------||-0-0-0---0-0----0-0-------6-6-6-------6-6-6-----------------|
| || Guitar 2 | |------------------------------------------------------------||------------------------------------------------------------||------------------------------------------------------------||-------------------------------4h5p4--------4h5p4-----------||-------7-----10-----9p6-------------------------------------||-0-0-0---0-0----0-0-------6-6-6-------6-6-6-----------------|
Guitar 1|------------------------------------------------------------||------------------------------------------------------------||------------------------------------------------------------||------------------------10-9-7-9-7----7---------------------||-------7-----10-----9p6------------10---10-9-7-9-10---------||-0-0-0---0-0----0-0-----------------------------------------|
| || Guitar 2 ||------------------------------------------------------------||------------------------------------------------------------||-------------------------9-7-5-7-5----5---------------------||-------5-----9------7p4------------9----9-7-5-7-9-----------||------------------------------------------------------------||-0-0-0---0-0----0-0-----------------------------------------|
C |-----------------------| G |-----------------------| D#|-----------------------| A#|-9----------5----------|F |-7----------3----------|C |-7----------3----------|
For this next part listen to song for timing
Guitar 1|------------------------------------------------------------||------------------------------------------------------------||------------------------------------------------------------||----------------5555-4444-555---------------5-5-------------||------------------------------------------------------------||-7777-5555--------------------0-0-0-0-0-0-0-----0-0-0-0-0-0-|
Guitar 2|------------------------------------------------------------||------------------------------------------------------------||------------------------------------------------------------||------------------------------------------------------------||----------------7777-6666-777---------------7-7-------------||-3333-2222--------------------0-0-0-0-0-0-0-----0-0-0-0-0-0-|
Last two notes Guitar 1|-----------------------| |-----------------------| |-----------------------| |-5-4-------------------||-----------------------||-----------------------|
Guitar 2|-----------------------| |-----------------------| |-----------------------| |-----------------------||-7-6-------------------||-----------------------|
Please rate this tab:
x1.0