Black Dahlia Murder - Im Charming tab

Band- Black Dahlia Murder
Song- I'm Charming

Standard tuning down 2 steps (NOT dropped C!!!)

Gtr I (C F Bb Eb G C) - 'Brian Eschbach'
Gtr II (C F Bb Eb G C) - 'John Kempainen'
Gtr III (C F Bb Eb G C) - 'Solo'
Gtr IV (C F Bb Eb G C) - 'End harmony'

Please leave me feedback.  Enjoy.

Intro Riff A Q=188 8/4 4/4 Gtr I PM--------| PM------------------------------------------||-------------------------------------------||-----------------------------||-------------------------------------------||o----------------------------||-------------5---------4-------------------||-----------------------------||---------------6-----5---------------------||-----------------------------||-----------------8-7-----------7-7-7-------||o-------3-3-3-1-1-1----------||-0-0-0-0-0-0-------------0-0-0-------6-6-6-||--1-1-1-------------4-4-4----|
|
| Gtr II| PM--------| PM------------------------------------------||-------------------------------------------||-----------------------------||-------------------------------------------||o----------------------------||-------------------------------------------||-----------------------------||-------------6---------5-------------------||-----------------------------||---------------8-----7---------3-3-3-------||o-------3-3-3-1-1-1----------||-0-0-0-0-0-0-----9-8-----0-0-0-------3-3-3-||--1-1-1-------------4-4-4----|
Gtrs I, II PM-------------------------------------------------|-------------------------|-------------------------||-------------------------|-------------------------||-------------------------|-------------------------||-------------------------|-------------------------||-------------------------|-------3-3-3-1-1-1-------||-3-3-3-1-1-1-3-3-3-4-4-4-|-0-0-0-------------3-3-3-|
-----------------------||---------------------------|||--------------------------o|||---------------------------|||---------------------------|||-------4-4-4-3-3-3--------o|||-0-0-0-------------4-4-4---||
Riff B Gtr I||----------------------------------|----------|||o---------------------------------|----------|||----------------------------------|----------|||----------------------------------|----------|||o---------3-3-3-3-----------------|-4--------|||--1-1-1-1---------3-3-3-3-4-4-4-4-|----------|
|
| Gtr II||----------------------------------|----------|||o---------------------------------|----------|||----------------------------------|----------|||----------------------------------|-3--------|||o-----------------1-1-1-1-3-3-3-3-|----------|||--1-1-1-1-4-4-4-4-----------------|----------|
1. 2.|---------------------------------|------------||-------------------||---------------------------------|-----------o||-5-----------------||---------------------------------|------------||-------------------||---------------------------------|------------||-2----2h3p2--------||---------4-4-4-4-3-3-3-3-1-1-1-1-|-3---------o||------------4-3----||-1-1-1-1-------------------------|------4-----||-------------------|
|
| PM||---------------------------------|------------||-------------------||---------------------------------|-----------o||-------------------||---------------------------------|------------||-------------------||---------------------------------|-2----------||-------------------||---------------------------------|------3----o||-3----3h4p3--------||-1-1-1-1-6-6-6-6-4-4-4-4-3-3-3-3-|------------||------------6-5----|
Riff C Gtrs I, II PM--| PM PM PM PM PM PM---||--------------------|-----------------|||o-------------------|-----------------|||--------------------|-----------------|||--------------------|-----------------|||o-3-------1---------|-----------------|||----1-1-1---1-4-1-3-|-1-1-1-3-1-4-0-0-|
1. ---| PM PM PM------| PM PM|-------------------|--------------------|||-------------------|-------------------o|||-------------------|--------------------|||-------------------|--------------------|||-----3---1---------|-----4---3---------o|||-0-0---0---0-4-0-0-|-0-0---0---0-1h3h4--||
2. Gtr I PM| PM PM|-----------------||-----------------||-----------------||-----------------||-----4---3-------||-0-0---0---0-3h4-|
|
| Gtr II| PM| PM|-----------------||-----------------||-----------------||-----------------||-----4---3-------||-0-0---0---4-6h8-|
Riff D Gtr I||----------------------------------|||o---------------------------------|||----------------------------------|||--------------3-3-3-3-3-3-6-6-6-6-|||o-4-4-4-4-4-4---------------------|||----------------------------------|
|
| Gtr II||----------------------------------|||o---------------------------------|||----------------------------------|||--------------------------3-3-3-3-|||o-1-1-1-1-1-1-4-4-4-4-4-4---------|||----------------------------------|
1. PM--------------||---------------------------------|-----------------------||---------------------------------|-----------------------||-------------------------3-3-3-3-|-5\--------------------||-5-5-5-5-5-5-6-6-6-6-6-6---------|-----------------------||---------------------------------|-----------------------||---------------------------------|-----1-1-1-1-1-1-1-1-1-|
|
| PM--------------||---------------------------------|-----------------------||---------------------------------|-----------------------||---------------------------------|-----------------------||-2-2-2-2-2-2-3-3-3-3-3-3-5-5-5-5-|-6\--------------------||---------------------------------|-----------------------||---------------------------------|-----1-1-1-1-1-1-1-1-1-|
2. PM--------------------||--------------------------||-----------------|-----------------||-------------------------o||-----------------|-----------------||--------------------------||-5-3-------------|---------------3-||--------------------------||-----6-5-3-2-----|-------2-3-5-6---||-------------------------o||-------------4-3-|-1-3-4-----------||-1-1-1-1-1-1-1-1-1-1-1-1--||-----------------|-----------------|
|
| PM--------------------| PM------------------||--------------------------||-----------------|-----------------||-------------------------o||-----------------|-----------------||--------------------------||-----------------|-----------------||--------------------------||-6-5-3-2---------|-----------2-3-5-||-------------------------o||---------4-3-1---|-----1-3-4-------||-1-1-1-1-1-1-1-1-1-1-1-1--||---------------4-|-3-4-------------|
|---------------------------------|---------------------------------||---------------------------------|---------------------------------||---------------------------------|-------------------------6-6-6-6-||-------------3-3-3-3-3-3-6-6-6-6-|-5-5-5-5-5-5-6-6-6-6-6-6---------||-4-4-4-4-4-4---------------------|---------------------------------||---------------------------------|---------------------------------|
|
|---------------------------------|---------------------------------||---------------------------------|---------------------------------||---------------------------------|---------------------------------||-------------------------3-3-3-3-|-2-2-2-2-2-2-3-3-3-3-3-3-8-8-8-8-||-1-1-1-1-1-1-4-4-4-4-4-4---------|---------------------------------||---------------------------------|---------------------------------|
PM----------------------| PM PM PM|-----------------------|----------------------||-----------------------|----------------------||-5\--------------------|----------------------||-----------------------|----------------------||-----------------------|-------3---1----------||-----1-1-1-1-1-1-1-1-1-|-1-1-1---1---1-4-1----|
|
| PM----------------------| PM PM PM|-----------------------|----------------------||-----------------------|----------------------||-----------------------|----------------------||-6\--------------------|-------2--------------||-----------------------|-----------4---3------||-----1-1-1-1-1-1-1-1-1-|-1-1-1---1---1---1----|
|---------------------------------||---------------------------------||-6-6-6-6-6-6-5-5-5-5-5-5-3-3-3-3-||---------------------------------||---------------------------------||---------------------------------|
|
|---------------------------------||---------------------------------||-3-3-3-3-3-3---------------------||-------------6-6-6-6-6-6-5-5-5-5-||---------------------------------||---------------------------------|
|---------------------------------|----------|---------------------||---------------------------------|----------|---------------------||---------------------------------|----------|---------------------||-6-6-6-6-6-6-5-5-5-5-5-5-3-3-3-3-|-2--------|-/5----2h3p2---------||---------------------------------|----------|-------------3h4p3p1-||---------------------------------|----------|---------------------|
|
| PM--||---------------------------------|----------|---------------------||---------------------------------|----------|---------------------||---------------------------------|----------|---------------------||-3-3-3-3-3-3-2-2-2-2-2-2---------|----------|---------------------||-------------------------4-4-4-4-|-3--------|-/7------------------||---------------------------------|----------|-------8h9p8-6---4---|
Back to Riff C, then:
Pre-Chorus Gtr I PM----| PM----| PM----| PM----|||-----------------------|----------------------|||o----------------------|----------------------|||-----------------------|----------------------|||--6---------10---------|----------------------|||o---8-8-8-8----8-8-8-8-|-10---------7---------|||-----------------------|----0-0-0-0---0-0-0-0-|
|
| Gtr II| PM----| PM----| PM----| PM----|||-----------------------|----------------------|||o----------------------|----------------------|||-----------------------|----------------------|||--6----------3---------|--2-------------------|||o---8-8-8-8------------|------------3---------|||---------------1-1-1-1-|----0-0-0-0---0-0-0-0-|
PM-----------------------------------------------------------||------------------------------|--------------------------------------|||------------------------------|-------------------------------------o|||------------------------------|--------------------------------------|||-10-------------------8--8--8-|-10-10-10-11-11-11-10-10-10--8--8--8--|||----8-8-8-8-11-11-11----------|-------------------------------------o|||------------------------------|--------------------------------------||
|
| PM-----------------------------------------------------------||------------------------------|--------------------------------------|||------------------------------|-------------------------------------o|||------------------------------|--------------------------------------|||--6---------------------------|-----------8--8--8--------------------|||----4-4-4-4--8--8--8-10-10-10-|-11-11-11----------11-11-11-10-10-10-o|||------------------------------|--------------------------------------||
Chorus PM------| PM|||----------------------------|-----------------------------|||o---------------------------|-----------------------------|||------------1-1-1-1-1-1-1-1-|-1-1-1-1---------------------|||------------3-3-3-3-3-3-3-3-|-3-3-3-3-----3-3-3-3-3-3-3-3-|||o---------------------------|-------------5-5-5-5-5-5-5-5-|||--1-1-1-1-1-----------------|---------0-1-----------------|
|
| PM------| PM|||----------------------------|-----------------------------|||o---------------------------|-----------------------------|||------------1-1-1-1-1-1-1-1-|-1-1-1-1---------------------|||------------3-3-3-3-3-3-3-3-|-3-3-3-3-----3-3-3-3-3-3-3-3-|||o---------------------------|-------------5-5-5-5-5-5-5-5-|||--1-1-1-1-1-----------------|---------0-1-----------------|
PM------||---------------------------|-----------------------|||---------------------------|----------------------o|||---------------------------|-----------------------|||-----------5-5-5-5-5-5-5-5-|-5-5-5-5---------------|||-----------7-7-7-7-7-7-7-7-|-7-7-7-7-8-7----------o|||-3-3-3-3-3-----------------|-------------9-6-8-4---||
|
| PM------||---------------------------|-----------------------|||---------------------------|----------------------o|||---------------------------|-----------------------|||-----------5-5-5-5-5-5-5-5-|-5-5-5-5---------------|||-----------7-7-7-7-7-7-7-7-|-7-7-7-7-4-3----------o|||-3-3-3-3-3-----------------|-------------6-3-4-0---||
Back to Riff A, then:
Riff E Gtr I PM-------------------------------------------------------------|-------------------------------|-------------------------------||-------------------------------|-------------------------------||-------------------------------|-------------------------------||-------------------------------|-------------------------------||-------8-8-8-11-11-11-10-10-10-|-------8-8-8-11-11-11-10-10-10-||-9-9-9-------------------------|-9-9-9-------------------------|
|
| Gtr II| PM-------------------------------------------------------------|-------------------------------|-------------------------------||-------------------------------|-------------------------------||-------------------------------|-------------------------------||-------------------------------|-------------------------------||-------4-4-4--8--8--8--7--7--7-|-------4-4-4--8--8--8--7--7--7-||-6-6-6-------------------------|-6-6-6-------------------------|
-------------------------------------------------||-------------------------|----------------------------||-------------------------|----------------------------||-------------------------|----------------------------||-------------------------|----------------------------||-------7-7-7-8-8-8-7-7-7-|-------7-7-7-8-8-8-7-7-7----||-8-8-8-------------------|-8-8-8----------------------|
|
|-------------------------------------------------||-------------------------|----------------------------||-------------------------|----------------------------||-------------------------|----------------------------||-------------------------|----------------------------||-------3-3-3-4-4-4-3-3-3-|-------3-3-3-4-4-4-3-3-3----||-4-4-4-------------------|-4-4-4----------------------|
PM-----------------------------|-------------------------------||-------------------------------||-------------------------------||-------------------------------||-------8-8-8-11-11-11-10-10-10-||-9-9-9-------------------------|
|
| PM-----------------------------|-------------------------------||-------------------------------||-------------------------------||-------------------------------||-------4-4-4--8--8--8--7--7--7-||-6-6-6-------------------------|
----------------------------||-------------------------------|-----------|-----------------||-------------------------------|-----------|-----------------||-------------------------------|-----------|-----------------||-------------------------------|-----------|-----------------||-------8-8-8-11-11-11-10-10-10-|--7--------|-10----7h8p7-----||-9-9-9-------------------------|-----------|-------------9-8-|
|
|----------------------------||-------------------------------|-----------|-----------------||-------------------------------|-----------|-----------------||-------------------------------|-----------|-----------------||-------------------------------|-----------|-----------------||-------4-4-4--8--8--8--7--7--7-|-10--------|--3----3h4p3-----||-6-6-6-------------------------|-----------|-------------6-4-|
Guitar Solo Guitar 1 and 2 play Riff C until noted: |
| Gtr III|-20--------------------------|-----------------------------||----21-----------------------|-20-21-23b25r==(23)-21-20----||-------22----22-(22)---21-22-|--------------------------22-||----------22-----------------|-----------------------------||-----------------------------|-----------------------------||-----------------------------|-----------------------------|
|
|------------------------------|----------------20b22r===||------------------------------|-------------------------||-21-22p21p18-21-18------------|-------------------------||-------------------22-22b23r==|=22----------------------||------------------------------|-------------------------||------------------------------|-------------------------|
|
|-20-18-20----18------------|----------------------------||----------21----20-21-18---|-20----18-------------------||---------------------------|----21----18-21----18-17h18p||---------------------------|----------------22----------||---------------------------|----------------------------||---------------------------|----------------------------|
|
| \2.5|---------------------------|-----------------------||---------------------------|-----------------------||-17----17------------------|-----------------------||----20----18-20-17-18------|-----------------------||----------------------20---|-19--------------------||---------------------------|-----------------------|
Now Guitars 1 and 2 play top section (note this is MOSTLY tremelo picked, or triplets but since this is converted from Powertab, the spacing is odd):
|-----------------------------------|----------------------------------||-----------------------------------|----------------------------------||-----------------------------------|----------------------------------||-----------------------------------|----------------------------------||---1--1-1-1-1-1-1-1---1--1-1-1-1h4-|-------------------------------1--||-----------------------------------|---3--3-3-3-3-3-3-3---3--3-3-3----|
|
| / / / /|-----------------------------------|----------------------------------||-----------------------------------|----------------------------------||-----------------------------------|--------------------<12>----------||-----------------------------------|-<12>-----------------------------||--------------------<12>-----------|----------------------------------||-<12>------------------------------|----------------------------------|
PM-----------------------------------------------||---------------------------------------|----------------------------||---------------------------------------|----------------------------||---------------------------------------|----------------------------||---------------------------------------|----------------------------||---------------------------------------|------------------4-3-------||---4---1-1-1-1-1-1----1-----1----1-----|----1---1-1-1-1-1-----6-4---|
|
| / \0.5/ \0.5/ /|-<12>--------------(<12>)-----(<12>)---|-(<12>)---------------------||-<12>--------------(<12>)-----(<12>)---|-(<12>)---------------------||---------------------------------------|----------------------------||---------------------------------------|----------------------------||---------------------------------------|----------------------------||---------------------------------------|----------------------------|
|-------------------------------------------------------------||-------------------------------------------------------------||-------------------------------------------------------------||-------------------------------------------------------------||-------------------------------------------------------------||--3-3----3----3--3-3----3----3--3-3----3----3--1-1----1----1-|
|
|-21---20---18---20---18--------18----------------------------||--------------------------21--------21---20---21---20---18---||-------------------------------------------------------------||-------------------------------------------------------------||-------------------------------------------------------------||-------------------------------------------------------------|
|--------------------------------------------------------------||--------------------------------------------------------------||--------------------------------------------------------------||--------------------------------------------------------------||--3-3----3----3--3-3----3----3--3-3----3----3-----------------||-----------------------------------------------0-0----0----0--|
|
|--------------------------------------------------------------||-20---18--------18--------------------------------------------||-----------21--------21---18---21---18--------18--------------||-----------------------------------------22--------22---20----||--------------------------------------------------------------||--------------------------------------------------------------|
Palm muted 1's here are triplets...just listen to the song
PM-------------------------------------|-------------------------------------------------------||-------------------------------------------------------||-------------------------------------------------------||-------------------------------------------------------||-------------------------------------------------------||--1-1----1----1--1-1----1-----1-1----1-----1-1----1----|
|
|-------------------------------------------------------||-------------------------------------------------------||-------------------------------------------------------||-22---20---18---20---18------18------------------------||--------------------------22------22---20-22---20---19-||-------------------------------------------------------|
------------------------------------------------||-------------------------------------------------------||-------------------------------------------------------||-------------------------------------------------------||-------------------------------------------------------||-------------------------------------------------------||--1-1----1-----1-1----1-----1-1----1-----1-1----1------|
|
|-------------------------------------------------------||----------------------------------------18---20---21---||---------------------------18---20---21----------------||--------------18---20---22-----------------------------||-19---20---22------------------------------------------||-------------------------------------------------------|
|--------------------------------------||--------------------------------------||--------------------------------------||--------------------------------------||--1-1-1-1-1-1-1-1-1-1-1-1--1h====4----||--------------------------------------|
|
| ~~|--------------------------------------||-20-----------------------------------||--------------------------17-17-17-17-||--------------------------------------||--------------------------------------||--------------------------------------|
|-------------------------------------------------||-------------------------------------------------||-------------------------------------------------||-------------------------------------------------||--------------------------------------1----------||--3--3--3--3--3--3--3--3--3--3--3--3-------------|
|
|-------------------------------------------------||-------------------------------------------------||-18-18-18-18-18-18-18-18-18-18-18-18-17-17-17-17-||-------------------------------------------------||-------------------------------------------------||-------------------------------------------------|
PM----------------------------------------------||-------------------------------------------------|------------------------||-------------------------------------------------|------------------------||-------------------------------------------------|------------------------||-------------------------------------------------|------------------------||-------------------------------------------------|---------------4-3------||--4-----------1--1--1-----1--1--1-----1--1--1----|--1-1-1-1-1-1------6-4--|
|
| ~~~~~~~~~~~~~~~|-------------------------------------------------|------------------------||-18-18-18-18-18-18-18-18-18-18-18-18-17-17-17-17-|-21-----------20--------||-------------------------------------------------|------------------------||-------------------------------------------------|------------------------||-------------------------------------------------|------------------------||-------------------------------------------------|------------------------|
|-----------------------------------------||-----------------------------------------||-----------------------------------------||-----------------------------------------||-----------------------------------------||--3-3--3-3--3-3--3-3--3-3--3-3--1-1--1-1-|
|
|-21---18---20--------18------------------||----------------21--------20---21---18---||-----------------------------------------||-----------------------------------------||-----------------------------------------||-----------------------------------------|
|-----------------------------------------||-----------------------------------------||-----------------------------------------||-----------------------------------------||--3-3--3-3--3-3--3-3--3-3--3-3-----------||--------------------------------0-0--0-0-|
|
|-----------------------------------------||-20--------18----------------------------||------21--------18---21--------18--------||--------------------------22--------20---||-----------------------------------------||-----------------------------------------|
PM----------------------------------||-----------------------------------|--------------------------||-----------------------------------|--------------------------||-----------------------------------|--------------------------||-----------------------------------|--------------------------||-----------------------------------|--------------------------||--1-1--1-1--1-1--1--1-1--1--1-1--1-|--1-1-1-1-1-1-13\---------|
|
| ~~|-----------------------------------|--------------------------||-----------------------------------|--------------------------||-----------------------------------|--------------------------||-22---18---20---18-17---18-20---18-|-20-----------------20\---||-----------------------------------|--------------------------||-----------------------------------|--------------------------|
Goes back into something like the intro riff:
Riff F 8/4 Gtr I PM--------| PM-----------------||--------------------------------------------|||o-------------------------------------------|||--------------5---------4-------------------|||----------------6-----5---------------------|||o-----------------8-7-----------7-7-7-------|||--0-0-0-0-0-0-------------0-0-0-------6-6-6-|
|
| Gtr II| PM--------| PM-----------------||--------------------------------------------|||o-------------------------------------------|||--------------------------------------------|||--------------6---------5-------------------|||o---------------8-----7---------3-3-3-------|||--0-0-0-0-0-0-----9-8-----0-0-0-------3-3-3-|
-----------| PM| ~|----------------------------------|||---------------------------------o|||-------------5---------4----------|||---------------6-----5-----3------|||-----------------8-7-----4---1---o|||-0-0-0-0-0-0----------------------||
|
|-----------| PM| ~|----------------------------------|||---------------------------------o|||----------------------------------|||-------------6---------5----------|||---------------8-----7-----4-----o|||-0-0-0-0-0-0-----9-8-----6---3----||
Back to Pre-Chorus in 4/4 Then Chorus The Out-Chorus is a slight variation: Guitar 1 and 2 continue while another guitar plays:
| Gtr IV||----------------------------------|---------------------------------|||o---------------------------------|---------------------------------|||----------------------------------|---------------------------------|||----------------------------------|---------------------------------|||o-8-8-8-8-8-8-8-8-8-8-8-8-8-8-8-8-|-8-8-8-8-8-8-8-8-8-8-8-8-8-8-8-8-|||----------------------------------|---------------------------------|
|
|-------------------------------------------------||-------------------------------------------------||-------------------------------------------------||-------------------------------------------------||-11-11-11-11-11-11-11-11-11-11-11-11-10-10-10-10-||-------------------------------------------------|
1. |
|-------------------------------------|||------------------------------------o|||-------------------------------------|||-------------------------------------|||-7-7-7-7-7-7-7-7-7-7-7-7-7-7-7-7----o|||-------------------------------------||
End on:
2. Gtr I|---------------------|----------*||---------------------|----------*||---------------------|----------*||-5-5-5-5-------------|----------*||-7-7-7-7-8-7---------|-3--------*||-------------9-6-8-4-|-1--------*|
|
| Gtr II|---------------------|----------*||---------------------|----------*||---------------------|----------*||-5-5-5-5-------------|----------*||-7-7-7-7-4-3---------|-3--------*||-------------6-3-4-0-|-1--------*|
|
| Gtr IV|---------------------|----------*||---------------------|----------*||---------------------|----------*||---------------------|----------*||-7-7-7-7-------------|----------*||---------------------|----------*|
Tablature Legend ---------------- h - hammer-on p - pull-off b - bend pb - pre-bend r - bend release (if no number after the r, then release immediately) /\ - slide into or out of (from/to "nowhere") s - legato slide S - shift slide - natural harmonic [n] - artificial harmonic n(n) - tapped harmonic ~ - vibrato tr - trill T - tap TP - trem. picking PM - palm muting \n/ - tremolo bar dip; n = amount to dip \n - tremolo bar down n/ - tremolo bar up /n\ - tremolo bar inverted dip = - hold bend; also acts as connecting device for hammers/pulls <> - volume swell (louder/softer) x - on rhythm slash represents muted slash o - on rhythm slash represents single note slash Misc Legend ----------- | - bar || - double bar ||o - repeat start o|| - repeat end *| - double bar (ending) : - bar (freetime) $ - Segno & - Coda Tempo markers - = BPM(8/16=s8/s16), where s8 = swing 8ths, s16 = swing 16ths **************************************************** * Generated using Power Tab Editor by Brad Larsen * ****************************************************
Tap to rate this tab
 
# A B C D E F G H I J K L M N O P Q R S T U V W X Y Z