Black Diamond - Touch The Fire tab

                touch the fire by bucket heads


                mathias holann martens og ragnar srand   age 11 years old

intro


-----5-0-8-0-7-0-5-0-9-0-12-0-11-0-14-0-17-| to times-------------------------------------------|-------------------------------------------|-------------------------------------------|-------------------------------------------|-------------------------------------------|
verse
------------------------------------------|------------------------------------------|------------------------------------------|7-7-7-7-7-7-7-7-7-7-7-7-7-7-7-7-7-7-7-7-7-|5-5-5-5-5-5-5-5-5-5-5-5-5-5-5-5-5-5-5-5-5-|
reff------------------------------------------|------------------------------------------|------------------------------------------|------------------------------------------|0-0-0-0-0-0-0-0-0-0-0-0-0-0-0-0-0-0-0-0-0-|2-2-2-2-2-2-2-2-2-2-2-2-2-2-2-2-2-2-2-2-2-|
------------------------------------------|------------------------------------------|------------------------------------------|------------------------------------------|3-3-3-3-3-3-3-3-3-3-3-3-3-3-3-3-3-3-3-3-3-|1-1-1-1-1-1-1-1-1-1-1-1-1-1-1-1-1-1-1-1-1-|
------------------------------------------|------------------------------------------|------------------------------------------|------------------------------------------|2-2-2-2-2-2-2-2-2-2-2-2-2-2-2-2-2-2-2-2-2-|0-0-0-0-0-0-0-0-0-0-0-0-0-0-0-0-0-0-0-0-0-|
------------------------------------------|------------------------------------------|------------------------------------------|------------------------------------------|3-3-3-3-3-3-3-3-3-3-3-3-3-3-3-3-3-3-3-3-3-|1-1-1-1-1-1-1-1-1-1-1-1-1-1-1-1-1-1-1-1-1-|
------------------------------------------|------------------------------------------|------------------------------------------|------------------------------------------|2-2-2-2-2-2-2-2-2-2-2-2-2-2-2-2-2-2-2-2-2-|0-0-0-0-0-0-0-0-0-0-0-0-0-0-0-0-0-0-0-0-0-|
riff 1
-------------------------5----5-7---------|-------------------------5----5-7---------|------------------------------------------|3-3-3-3-3-3-3-3-3-3-3-3-3-3-3-------------|3-3-3-3-3-3-3-3-3-3-3-3-3-3-3-------------|------------------------------------------|
------------------------5-----------5-7---|------------------------5-----------5-7---|------------------------------------------|3-3-3-3-3-3-3-3-3-3-3-3--3-3-3-3-3-3---3--|3-3-3-3-3-3-3-3-3-3-3-3--3-3-3-3-3-3---3--|
------------------------------------------|------------------------------------------|------------------------------------------|3-4-5-4-3-4-5-4-3-4-5-4-3-4-5-4-3-4-5-4-3-|3-4-5-4-3-4-5-4-3-4-5-4-3-4-5-4-3-4-5-4-3-|------------------------------------------|
reff 2
------------------------------------------|------------------------------------------|------------------------------------------|------------------------------------------|2-2-2-2-2-2-2-2-2-2-2-2-2-2-2-2-2-2-2-2-2-|0-0-0-0-0-0-0-0-0-0-0-0-0-0-0-0-0-0-0-0-0-|
------------------------------------------|------------------------------------------|------------------------------------------|------------------------------------------|3-3-3-3-3-3-3-3-3-3-3-3-3-3-3-3-3-3-3-3-3-|1-1-1-1-1-1-1-1-1-1-1-1-1-1-1-1-1-1-1-1-1-|
solo to times \-5p8p12--7p9p12---3p5p12----7-8-5-6-3-4-2-1-| tree times--------------------------------------------|--------------------------------------------|--------------------------------------------|--------------------------------------------|--------------------------------------------|
-11-12-15-15-16-15-16-15-16-15-16-15-16-15-16-|----------------------------------------------|----------------------------------------------|----------------------------------------------|----------------------------------------------|----------------------------------------------|
-15--17--15--17--15--17--17--15--17--15--17--15--17--15----|---15--17--15--17--15--17--15--17--15--17--15--17--15---17-|-----------------------------------------------------------|-----------------------------------------------------------|-----------------------------------------------------------|-----------------------------------------------------------|
ROCK ON! --
Tap to rate this tab
 
# A B C D E F G H I J K L M N O P Q R S T U V W X Y Z