Black Flag - My War tab version 2

Band - Black Flag
Song - My War
Album - My War

Tabbed By: Tyler Freear (SumFX)

Tuning: Standard (E A D G B E)

I Can't Understand Why Black Flag Got So Much Hate For The
'My War' Album. I Think It Is Fantastic.

Anywho, This Is The Title Track From The Album!

Intro|-------------------|------------------||-5-----------------|------------------||----6----7-5-------|----5-3-------7-5-||-------0------3----|------------------||-------------------|--3------4--5-----||-------------------|------------------|
|-------------------|------------------||-------------------|------------------||-8-6----9-7--------|-5/7--------------||-----5------6--5---|------------------||-------------------|------------------||-------------------|------------------|
Verse|------------------------------------------||------------------------------------------||------------------------------------------||------------------------------------------||------------------------------------------||-4-2222222-5-2222222-4-2222222-5-2222222--|
|-------------------------||-------------------------||-------------------------||-------------------------||-------------------------||-4-222-5-222-4-222-5-222-|
|-------------------||-------------------||-------------------||-6-------66-6666---||-6-xxxxx-66-6666---||-4-xxxxx-44-4444---|
|------------------------------------------||------------------------------------------||------------------------------------------||------------------------------------------||-4-2222222-5-2222222-4-2222222-5-2222222--||------------------------------------------|
|-------------------------||-------------------------||-------------------------||-------------------------||-4-222-5-222-4-222-5-222-||-------------------------|
|-------------------||-------------------||-6-------66-6666---||-6-xxxxx-66-6666---||-4-xxxxx-44-4444---||-------------------|
|------------------------------------------||------------------------------------------||------------------------------------------||------------------------------------------||------------------------------------------||-4-2222222-5-2222222-4-2222222-5-2222222--|
|-------------------------||-------------------------||-------------------------||-------------------------||-------------------------||-4-222-5-222-4-222-5-222-|
|----------------------------------------||----------------------------------------||----------------------------------------||-------4-5-------3-4--------2-3---------| x2|-55555-----44444------33333-----0-2-0-2-||----------------------------------------|
Post Verse 1|------------------------------||------------------------------||------------------------------||---------------------2--------||-0-2-0-2---0-2-0-2---2--------||---------------------0--------|
Post Verse 2|---------------------||---------------------||---------------------||---------------------||-0-2-0-2---0-2-0-2---||---------------------|
Bridge|-----------------|-----------------------------||-5---------------|-----------------------------||----0------------|---5-3--------7-----8-----9--||------1-0---3--3-|--------3--------------------||-----------------|-3---------5-----6-----7-----||-----------------|-----------------------------|
|-------------------||-------------------||-6-7--6-4----------||----------3--------||-------------------||-------------------|
Post Verse 3/Outro|---------------------------------------------||---------------------------------------------||---------------------------------------------||---------------------------------------------||-0-2-0-2--0-2-0-2--0-2-0-2-------------------||----------------------------0-2-0-2--0-2-0-2-|
|---------------------------------------------||---------------------------------------------||---------------------------------------------||---------------------------------------------||-------------------0-2-0-2--0-2-0-2--0-2-0-2-||-0-2-0-2--0-2-0-2----------------------------|
E5|-------------------||-------------------||-------------------||-2-----------------||-2-----------------||-0-----------------|
Structure Intro Verse Post Verse Verse Post Verse 2 Bridge Verse Post Verse 3/Outro E5 Thats It! My War!
Tap to rate this tab
 
# A B C D E F G H I J K L M N O P Q R S T U V W X Y Z