Black Keys - My Mind Is Ramblin tab version 4

You'll notice that aside from the intro and a couple solos, there are only about 3 
unique riffs that repeat throughout. If you learn them, and can improvise a bit, you can play 
this song, and it sounds great.


Intro

---------------------------------------5/7--5-------------------|-------------------------------7--5------------5--5h7--5--------|-------------2-4/6--6\4-2------------6--------------------6\4---|--2h4----2h4--------------4\2-----------------------------------|----------------------------------------------------------------|----------------------------------------------------------------|
----------------------------------------------------------------|----------------------------------------------------------------|---4p2----------------------------------------------------------|-------2h4p2----------------------------------------------------|--------------2h4-----------------------------------------------|----------------------------------------------------------------|
Main Part (the open notes on the A string are hard to tab perfectly. Basically, just keep a steady bass line with your thumb throughout those parts)
----------------------------------------------------------------|----------------------------------------------------------------|------------------2h4--2-----2-----------------2h4--2-----2-----|--------2-----------------4-----------2----------------4--------|--2--4-----0--0--0--------------2--4-----0--0--0----------------|----------------------------------------------------------------|
----------------------------------------------------------------|----------------------------------------------------------------|------------4/6------------4------------2h4------2-----2--------|--------2----------------------------2--------------4-----------|--2--4------0--0--0--0--0--0---2--4-----0--0--0--0--0--0--------|----------------------------------------------------------------|
----------------------------------------------------------------|---------------------------5------------5h7--5-----5------------|------------4/6---------------------------------6-----4---------|--------2---------------------------2---------------------4\2---|--2--4------0--0--0--0--0--0---2--4-----0----0--0--0--0---------|----------------------------------------------------------------|
----------------------------------------------------------------|----------------------------------------------------------------|------------------2h4--2-----2-----------------2h4--2-----2-----|--------2-----------------4-----------2----------------4--------|--2--4-----0--0--0--------------2--4-----0--0--0----------------|----------------------------------------------------------------|
----------------------------------------------------------------|----------------------------------------------------------------|------------------2h4--2-----2-----------------2h4--2-----2-----|--------2-----------------4-----------2----------------4--------|--2--4-----0--0--0--------------2--4-----0--0--0----------------|----------------------------------------------------------------|
----------------------------------------------------------------|-------5--5h7--5-5h7--5h7-5-------------------------------------|--4/6-----------------------4--2--------------------------------|----------------------------------4\2---------------------------|--0----0--0----0-0----0---0-0--0--0-----------------------------|----------------------------------------------------------------|
----------------------------------------------------------------|----------------------------------------------------------------|------------------2h4--2-----2-----------------2h4--2-----2-----|--------2-----------------4-----------2----------------4--------|--2--4-----0--0--0--------------2--4-----0--0--0----------------|----------------------------------------------------------------|
"My mind is ramblin, place to place"----------------------------------------------------------------|----------------------------------------------------------------|----------------------------------------------------------------|--------2--4-4-4-4-4-4-4-4-4-4-4-4-4-4-4-4-4-4------------------|--2--4----------------------------------------------------------|----------------------------------------------------------------|
----------------------------------------------------------------|----------------------------------------------------------------|------------------2h4--2-----2-----------------2h4--2-----2-----|--------2-----------------4-----------2----------------4--------|--2--4-----0--0--0--------------2--4-----0--0--0----------------|----------------------------------------------------------------|
"Tell me, tell me, what must I do?"----------------------------------------------------------------|----------------------------------------------------------------|----------------------------------------------------------------|--------2--4-4-4-4-4-4-4-4-4-4-4-4-4-4-4-4-4-4------------------|--2--4----------------------------------------------------------|----------------------------------------------------------------|
----------------------------------------------------------------|----------------------------------------------------------------|------------------2h4--2-----2-----------------2h4--2-----2-----|--------2-----------------4-----------2----------------4--------|--2--4-----0--0--0--------------2--4-----0--0--0----------------|----------------------------------------------------------------|
"Yeah yeah (etc)"----------------------------------------------------------------|-------5--5h7--5--5h7-5-----------------------------------------|--4h6--------------------4--2-----------------------------------|-------------------------------4\2------------------------------|--0----0--0----0--0---0--0--0--0--------------------------------|----------------------------------------------------------------|
----------------------------------------------------------------|----------------------------------------------------------------|------------------2h4--2-----2-----------------2h4--2-----2-----|--------2-----------------4-----------2----------------4--------|--2--4-----0--0--0--------------2--4-----0--0--0----------------|----------------------------------------------------------------|
"Ahhh ahh (etc)"----------------------------------------------------------------|----------------------------------------------------------------|------------4/6------------4------------2h4------2-----2--------|--------2----------------------------2--------------4-----------|--2--4------0--0--0--0--0--0---2--4-----0--0--0--0--0--0--------|----------------------------------------------------------------|
"Ahhh ahh (etc)"----------------------------------------------------------------|---------------------------5------------5h7--5-----5------------|------------4/6---------------------------------6---------------|--------2---------------------------2---------------------------|--2--4------0--0--0--0--0--0---2--4-----0----0--0--0------------|----------------------------------------------------------------|
----------------------------------------------------------------|----------------------------------------------------------------|------------------2h4--2-----2-----------------2h4--2-----2-----|--------2-----------------4-----------2----------------4--------|--2--4-----0--0--0--------------2--4-----0--0--0----------------|----------------------------------------------------------------|
"I been in love, been in love for a long time, with you baby"----------------------------------------------------------------|----------------------------------------------------------------|----------------------------------------------------------------|--------2--4-4-4-4-4-4-4-4-4-4-4-4-4-4-4-4-4-4------------------|--2--4----------------------------------------------------------|----------------------------------------------------------------|
----------------------------------------------------------------|----------------------------------------------------------------|------------------2h4--2-----2-----------------2h4--2-----2-----|--------2-----------------4-----------2----------------4--------|--2--4-----0--0--0--------------2--4-----0--0--0----------------|----------------------------------------------------------------|
"Gimme your hand, say you love me, say that you'll be mine"----------------------------------------------------------------|----------------------------------------------------------------|----------------------------------------------------------------|--------2--4-4-4-4-4-4-4-4-4-4-4-4-4-4-4-4-4-4------------------|--2--4----------------------------------------------------------|----------------------------------------------------------------|
----------------------------------------------------------------|----------------------------------------------------------------|------------------2h4--2-----2-----------------2h4--2-----2-----|--------2-----------------4-----------2----------------4--------|--2--4-----0--0--0--------------2--4-----0--0--0----------------|----------------------------------------------------------------|
----------------------------------------------------------------|----------------------------------------------------------------|------------------2h4--2-----2-----------------2h4--2-----2-----|--------2-----------------4-----------2----------------4--------|--2--4-----0--0--0--------------2--4-----0--0--0----------------|----------------------------------------------------------------|
"Yeah yeah (etc)"----------------------------------------------------------------|-------5--5h7--5--5h7-5-----------------------------------------|--4h6--------------------4--2-----------------------------------|-------------------------------4\2------------------------------|--0----0--0----0--0---0--0--0--0--------------------------------|----------------------------------------------------------------|
----------------------------------------------------------------|----------------------------------------------------------------|------------------2h4--2-----2-----------------2h4--2-----2-----|--------2-----------------4-----------2----------------4--------|--2--4-----0--0--0--------------2--4-----0--0--0----------------|----------------------------------------------------------------|
"Yeah yeah (etc)"----------------------------------------------------------------|-------5--5h7--5--5h7-5-----------------------------------------|--4h6--------------------4--2-----------------------------------|-------------------------------4\2------------------------------|--0----0--0----0--0---0--0--0--0--------------------------------|----------------------------------------------------------------|
----------------------------------------------------------------|----------------------------------------------------------------|------------------2h4--2-----2-----------------2h4--2-----2-----|--------2-----------------4-----------2----------------4--------|--2--4-----0--0--0--------------2--4-----0--0--0----------------|----------------------------------------------------------------|
Solo 1------------------5----------5--7/9--7--5----------5--5h7-------|-------5-5h7--5h7---5h7--5h7---------------5--5h7---------7-----|--4h6-----------------------------------------------------------|----------------------------------------------------------------|--0----0-0----0---0-0----0---0--0----0--0--0--0----0--0---0-----|----------------------------------------------------------------|
--12------------------------------------------------------------|-----14\10--10h12--10------10-----------------------------------|----------------------9h11----9h11------------9-----------------|-----------------------------------11\9--9/11----9--------------|--0--0------0------0--0----0--0----0-----0----0--0----12--9\7---|----------------------------------------------------------------|
----------------------------------------------------------------|----------------------------------------------------------------|------------------2h4--2-----2-----------------2h4--2-----2-----|--------2-----------------4-----------2----------------4--------|--2--4-----0--0--0--------------2--4-----0--0--0----------------|----------------------------------------------------------------|
----------------------------------------------------------------|----------------------------------------------------------------|------------------2h4--2-----2-----------------2h4--2-----2-----|--------2-----------------4-----------2----------------4--------|--2--4-----0--0--0--------------2--4-----0--0--0----------------|----------------------------------------------------------------|
----------------------------------------------------------------|----------------------------------------------------------------|------------------2h4--2-----2-----------------2h4--2-----2-----|--------2-----------------4-----------2----------------4--------|--2--4-----0--0--0--------------2--4-----0--0--0----------------|----------------------------------------------------------------|
"Ahhh ahh (etc)"----------------------------------------------------------------|---------------------------5--5h7--5---5------------------------|--4h6--4--2h4--2------4h6------------6----4h6-4--2h4-2---2------|-----------------4p2-----------------------------------4--------|----------------------------------------------------------------|----------------------------------------------------------------|
----------------------------------------------------------------|----------------------------------------------------------------|------------------2h4--2-----2-----------------2h4--2-----2-----|--------2-----------------4-----------2----------------4--------|--2--4-----0--0--0--------------2--4-----0--0--0----------------|----------------------------------------------------------------|
----------------------------------------------------------------|----------------------------------------------------------------|------------------2h4--2-----2-----------------2h4--2-----2-----|--------2-----------------4-----------2----------------4--------|--2--4-----0--0--0--------------2--4-----0--0--0----------------|----------------------------------------------------------------|
Solo 2----------------5--7/9--7--9/12--12--12/14-14-14-12-------------|------5---5-5h7-------------------------------------14\10-10h12-|--4h6---6-------------------------------------------------------|----------------------------------------------------------------|----------------------------------------------------------------|----------------------------------------------------------------|
----------------------------------------------------------------|--10------------10------10--12/14-12--10------------------------|-----11\9--9/11----9/11------------------11p9-------------------|-----------------------------------------------9--7-------------|----------------------------------------------------7-----------|----------------------------------------------------------------|
----------------------------------------------------------------|----------------------------------------------------------------|------------------2h4--2-----2-----------------2h4--2-----2-----|--------2-----------------4-----------2----------------4--------|--2--4-----0--0--0--------------2--4-----0--0--0----------------|----------------------------------------------------------------|
----------------------------------------------------------------|----------------------------------------------------------------|------------------2h4--2-----2-----------------2h4--2-----2-----|--------2-----------------4-----------2----------------4--------|--2--4-----0--0--0--------------2--4-----0--0--0----------------|----------------------------------------------------------------|
----------------------------------------------------------------|----------------------------------------------------------------|------------------2h4--2-----2-----------------2h4--2-----2-----|--------2-----------------4-----------2----------------4--------|--2--4-----0--0--0--------------2--4-----0--0--0----------------|----------------------------------------------------------------|
----------------------------------------------------------------|----------------------------------------------------------------|------------------2h4--2-----2-----------------2h4--2-----2-----|--------2-----------------4-----------2----------------4--------|--2--4-----0--0--0--------------2--4-----0--0--0----------------|----------------------------------------------------------------|
"My mind is ramblin, place to place"----------------------------------------------------------------|----------------------------------------------------------------|----------------------------------------------------------------|--------2--4-4-4-4-4-4-4-4-4-4-4-4-4-4-4-4-4-4------------------|--2--4----------------------------------------------------------|----------------------------------------------------------------|
"Tell me, tell me, tell me what to do...?"----------------------------------------------------------------|----------------------------------------------------------------|----------------------------------------------------------------|--4-4-4-4-4-4-4-4-4-4-4-4-4-4-4-4-4-4-4-4-4-4-4-4-4-4-----------|----------------------------------------------------------------|----------------------------------------------------------------|
----------------------------------------------------------------|----------------------------------------------------------------|------------------2h4--2-----2-----------------2h4--2-----2-----|--------2-----------------4-----------2----------------4--------|--2--4-----0--0--0--------------2--4-----0--0--0----------------|----------------------------------------------------------------|
----------------------------------------------------------------|----------------------------------------------------------------|------------------2h4--2-----2-----------------2h4--2-----2-----|--------2-----------------4-----------2----------------4--------|--2--4-----0--0--0--------------2--4-----0--0--0----------------|----------------------------------------------------------------|
"Yeah yeah (etc)"----------------------------------------------------------------|-------5--5h7--5--5h7-5-----------------------------------------|--4h6--------------------4--2-----------------------------------|-------------------------------4\2------------------------------|--0----0--0----0--0---0--0--0--0--------------------------------|----------------------------------------------------------------|
"Yeah yeah (etc)"----------------------------------------------------------------|-------5--5h7--5--5h7-5-----------------------------------------|--4h6--------------------4--2-----------------------------------|-------------------------------4\2------------------------------|--0----0--0----0--0---0--0--0--0--------------------------------|----------------------------------------------------------------|
----------------------------------------------------------------|----------------------------------------------------------------|------------------2h4--2-----2-----------------2h4--2-----2-----|--------2-----------------4-----------2----------------4--------|--2--4-----0--0--0--------------2--4-----0--0--0----------------|----------------------------------------------------------------|
----------------------------------------------------------------|----------------------------------------------------------------|------------------2h4--2-----2-----------------2h4--2-----2-----|--------2-----------------4-----------2----------------4--------|--2--4-----0--0--0--------------2--4-----0--0--0----------------|----------------------------------------------------------------|
----------------------------------------------------------------|----------------------------------------------------------------|------------------2h4--2-----2-----------------2h4--2-----2-----|--------2-----------------4-----------2----------------4--------|--2--4-----0--0--0--------------2--4-----0--0--0----------------|----------------------------------------------------------------|
"Ahhh ahh (etc)"----------------------------------------------------------------|----------------------------------------------------------------|--4h6--4--2h4--2---2----4h6--4--2h4--2---2----------------------|-----------------4---------------------4------------------------|----------------------------------------------------------------|----------------------------------------------------------------|
Tap to rate this tab
 
# A B C D E F G H I J K L M N O P Q R S T U V W X Y Z