Crazy Train tab with lyrics by Black Sabbath - Easy chords and tabs for guitar

Black Sabbath – Crazy Train tab

CRAZY TRAIN !!

|-------------------------------------||-------------------------------------||-------------------------------------||-------------------------------------||-------0-0-------------5-5-----------||-2-2--------0-0--2-2--------0-0--2-2-|
|-----------------------------------------------------------||-----------------------------------------------------------||-----------------------------------------------------------||-----------------------------------------------------------||-----4---5---4---2-0---0-2-0---------4---5---4---2-0---0-2-||-2-2---2---2---2-----4-------4-0-2-2---2---2---2-----4-----|
|----------------------------------------------------------||----------------------------------------------------------||----------------------------------------------------------||----------------------------------------------------------||-0---------4---5---4---2-0---0-2-0---------4---5---4------||---4-0-2-2---2---2---2-----4-------4-0-2-2---2---2---2----|
|--2-------0-------||--3-------0-------||--2-------1-------||--0-------2-------||----------2-------||----------0-------|
|---2----------2----------2----------2-------------------2-||---2----------5----------3----------2-------------------2-||---2----------2----------2----------2-------------------2-||---2----------2----------2----------2-------------------2-||----------------------------------------------------------||----------------------------------------------------------|
|---------2----------2----------2--------------------------||---------5----------3----------2--------------------------||---------2----------2----------2-----h4p2p0---------------||---------2----------2----------2-----------h4p2p0---------||-------------------------------------------------h4p2p0---||----------------------------------------------------------|
|---2----------2----------2----------2-----------||---2----------5----------3----------2-----------||---2----------2----------2----------2-----------||---2----------2----------2----------2-----------||------------------------------------------------||------------------------------------------------| x4
|-------------------2-----------------------------2--------||-------------------3-----------------------------3--------||-------------------2------6^---------------------2--------||-4------4----------0--0-4-----4------4-----------0--------||-4------4---------------------4------4--------------5-5-4-||-2------2---------------------2------2--------------------|
|----2-2--2---2---0-----0--0-0---0---------------------------||----2-2--2---2---0-----0--0-0---0--\2-3p2-------------------||----2-2--2---2---1-----1--1-1---1----------4p2-5p2--4p2-3p2-||----2-2--2---2---2-----2--2-2---2---------------------------||-2---------------2-----1--1-1---1---------------------------||------------------------------------------------------------|
|------------------------------------||------------------------------------||------------------------------------||-4p2-3p2-4p3p2p0--------------------||-----------------4p0-3p0-4p3p2p0----||---------------------------------2--|
|----2-2--2---2---0-----0--0-0---0---------------------------||----2-2--2---2---0-----0--0-0---0---------------------------||----2-2--2---2---1-----1--1-1---1---------------------------||----2-2--2---2---2-----2--2-2---2---------------------------||-2---------------2-----1--1-1---1--------------0------------||------------------------------------2-0-2--2h4----4-2-0-2-4-|
|-----------2---2---0---0--||-----------3---3---0---0--||-----------2---2---1---1--||-----------0---0---2---2--||-------------------2---2--||-2-0-2-2h4----------------|
|----2-2--2---2---0-----0--0-0---0-||----2-2--2---2---0-----0--0-0---0-||----2-2--2---2---1-----1--1-1---1-||----2-2--2---2---2-----2--2-2---2-||-2---------------2-----1--1-1---1-||----------------------------------|
Please rate this tab:
x1.0