Black Sabbath - Children Of The Sea tab

CHILDREN OF THE SEA
Black Sabbath



 Intro
  
Gtr I|-------1p0-------|-3-----3-------|-------1p0---------|---------------------||-----3-----3-----|---0------0----|-----3-----3-------|-----------0---------||---2---------2---|------------2--|---2---------2-----|-----0---------------||-0-------------0-|-----0---------|-0-----------------|---2-----0---2b2.5p0-||-----------------|---------------|---------------0h2-|-3-----2-------------||-----------------|---------------|-------------------|---------------------|
Gtr II ~~~~~~~~~~|--------------------------|------------------||--------------------------|------------------||-7-9-10-10-/12-------(12)-|-(12)-------------||--------------------------|------------------||--------------------------|------------------||--------------------------|------------------|
|
| Gtr I|-------------1p0----------|---3------3-------||------3----------3--------|------0------0----||---2---------------2------|---------------2--||-0---------------------0--|--------0---------||--------------------------|------------------||--------------------------|------------------|
~~~ ~~~~~~~~~~|----------------------|-------------------------|||----------------------|-------------------------|||-10p9---------7-9-7---|-(7)-------------9p====7-|||------10--------------|-----10-9------9---------|||---------10-----------|----------10-------------|||----------------------|-------------------------||
|
|----------1p0---------|-------------------------|||-------3------3-------|---------------0---------|||----2-----------2-----|--------0----------------|||--0-------------------|------2------0---2b2.5p0-|||------------------0h2-|--3--------2-------------|||----------------------|-------------------------||
1st Verse Slightly Slower Q=142 ~~~~~~~~~~~~~~~~|-------------------|-----------------||-------------------|-----------------||-(7)---------------|-(7)-------------||-------------------|-----------------||-------------------|-----------------||-------------------|-----------------|
|
|---------1p0-------|--3------3-------||-------3-----3-----|-----0------0----||-----2---------2---|--------------2--||--0--------------0-|-------0---------||-------------------|-----------------||-------------------|-----------------|
~~~|-------------------|----8-13-------------------||-------------------|-10----------10s8----------||-7-----------------|------------------10-----7-||-------------------|---------------------------||-------------------|---------------------------||-------------------|---------------------------|
|
|-------1p0---------|---------------------------||-----3-----3-------|--------------0------------||---2---------2-----|-------0-------------------||-0-----------------|----2------0-------2b2.5p0-||---------------0h2-|--3------2-----------------||-------------------|---------------------------|
~~~~~~~~~~~~~~~~~~~~~~~~~~~~~~~~~~~|-----------------|-----------------||-----------------|-----------------||-7---------------|-(7)-------------||-----------------|-----------------||-----------------|-----------------||-----------------|-----------------|
|
|-------1p0-------|--3------3-------||-----3-----3-----|-----0------0----||---2---------2---|--------------2--||-0-------------0-|-------0---------||-----------------|-----------------||-----------------|-----------------|
~~~~~|---------------------------|----------------------------||---------------------------|----------------------------||-(7)-------------9h11h==12-|-(12)-11-9-7----------------||---------------------------|-----------------10p====9---||---------------------------|----------------------------||---------------------------|----------------------------|
|
|---------1p0---------------|----------------------------||-------3-----3-------------|---------------0------------||-----2---------2-----------|---------0------------------||--0------------------------|-------2-----0----2b2.5p0---||-----------------0h===2----|---3-------2----------------||---------------------------|----------------------------|
~~~~~~~~~~~~~~~~~~~~~~~~~~~~~~~~~~~|-----------------|-----------------||-----------------|-----------------||-7---------------|-(7)-------------||-----------------|-----------------||-----------------|-----------------||-----------------|-----------------|
|
|-------1p0-------|--3------3-------||-----3-----3-----|-----0------0----||---2---------2---|--------------2--||-0-------------0-|-------0---------||-----------------|-----------------||-----------------|-----------------|
~~~~~|---------------------|-------------------------||---------------------|-------------------------||-(7)-----------------|-7-10-9---------------9--||---------------------|--------10---7-10--------||---------------------|-------------------------||---------------------|-------------------------|
|
|---------1p0---------|-------------------------||-------3-----3-------|-------------0-----------||-----2---------2-----|------0------------------||--0------------------|----2------0----2b2.5p0--||-----------------0h2-|-3-------2---------------||---------------------|-------------------------|
<|-----------------|------------------|------------|------|||-----------------|------------------|------------|------|||-7---------------|-(7)--------------|-(7)--------|------|||-----------------|------------------|------------|------|||-----------------|------------------|------------|------|||-----------------|------------------|------------|------||
|
| Gtr III| <|-------1p0-------|--3------3--------|------------|------|||-----3-----3-----|-----0------0-----|------------|------|||---2---------2---|--------------2---|------------|------|||-0-------------0-|-------0--------0-|--0---------|-7----|||-----------------|------------------|------------|-5----|||-----------------|------------------|------------|------||
G#5 A#B5 A#B5 G#5 F#5 C#5 Gtr III PM----| PM PM||---------------|-------------------|-------------|-^3----------|||o--------------|-------------------|-------------|-^3----!3----|||--2---2-2------|---4-5---4-5--(5)\-|-2---2-2-----|-^0----!2----|||--2---2-2------|---4-5---4-5--(5)\-|-2---2-2-----|-------!0----|||o-0---0-0--0-0-|-0-2-3-0-2-3--(3)\-|-0---0-0--0--|-------------|||---------------|-------------------|-------------|-------------|
Q=143 G#5 A#B5 A#B5 G#5 F#5 C#5 PM----| PM PM|--------------|-------------------|-------------|-3---------|||--------------|-------------------|-------------|-3----3----|||-2---2-2------|---4-5---4-5--(5)\-|-2---2-2-----|-0----2----|||-2---2-2------|---4-5---4-5--(5)\-|-2---2-2-----|------0----|||-0---0-0--0-0-|-0-2-3-0-2-3--(3)\-|-0---0-0--0--|-----------|||--------------|-------------------|-------------|-----------||
2nd and 3rd Verse G#5 A#B5 A#B5 G#5 F#5 C#5 Gtr III PM----| PM PM|--------------|-------------------|-------------|-3---------||--------------|-------------------|-------------|-3----3----||-2---2-2------|---4-5---4-5--(5)\-|-2---2-2-----|-0----2----||-2---2-2------|---4-5---4-5--(5)\-|-2---2-2-----|------0----||-0---0-0--0-0-|-0-2-3-0-2-3--(3)\-|-0---0-0--0--|-----------||--------------|-------------------|-------------|-----------|
G#5 A#B5 A#B5 G#5 F#5 C#5 PM----| PM PM|--------------|-------------------|-------------|-3---------||--------------|-------------------|-------------|-3----3----||-2---2-2------|---4-5---4-5--(5)\-|-2---2-2-----|-0----2----||-2---2-2------|---4-5---4-5--(5)\-|-2---2-2-----|------0----||-0---0-0--0-0-|-0-2-3-0-2-3--(3)\-|-0---0-0--0--|-----------||--------------|-------------------|-------------|-----------|
G#5 A#B5 A#B5 G#5 F#5 C#5 PM----| PM PM|--------------|-------------------|-------------|-3---------||--------------|-------------------|-------------|-3----3----||-2---2-2------|---4-5---4-5--(5)\-|-2---2-2-----|-0----2----||-2---2-2------|---4-5---4-5--(5)\-|-2---2-2-----|------0----||-0---0-0--0-0-|-0-2-3-0-2-3--(3)\-|-0---0-0--0--|-----------||--------------|-------------------|-------------|-----------|
Q=141 G#5 A#B5 A#B5 G#5 F#5 C#5 PM----| PM PM|--------------|-------------------|-------------|-3---------|||--------------|-------------------|-------------|-3----3----|||-2---2-2------|---4-5---4-5--(5)\-|-2---2-2-----|-0----2----|||-2---2-2------|---4-5---4-5--(5)\-|-2---2-2-----|------0----|||-0---0-0--0-0-|-0-2-3-0-2-3--(3)\-|-0---0-0--0--|-----------|||--------------|-------------------|-------------|-----------||
Chorus 1. B5 F# PM||-------------|-3--(3)----------||-------------|-3--(3)----------||-5----5------|-4--(4)----------||-5----5------|-5--(5)-------2--||-3----3--3-0-|-5--(5)---2-5----||-------------|-3--(3)-3--------|
G#5 PM||--------------|--------------------------------||--------------|--------------------------------||-2---2-2------|--------------------------------||-2---2-2------|-----------2-2-2-----------2/---||-0---0-0--0-0-|-----------0-0-0-----------0----||--------------|-3b4==(3)r-------3b4==(3)r------|
B5 F# G#5 PM||-------------|-3--(3)---------|--------------|--------------------------------||-------------|-3--(3)---------|--------------|--------------------------------||-5----5------|-4--(4)---------|-2--2--2--2-2-|--------------------------------||-5----5------|-5--(5)------2--|-2--2--2--2-2-|-----------2-2-2-----------2/---||-3----3--3-0-|-5--(5)--2-5----|-0--0--0--0-0-|-3b4==(3)r-0-0-0-----------0----||-------------|-3--(3)---------|--------------|-----------------3b4==(3)r------|
B5 F# PM||-------------|-3--(3)----------||-------------|-3--(3)----------||-5----5------|-4--(4)----------||-5----5------|-5--(5)-------2--||-3----3--3-0-|-5--(5)---2-5----||-------------|-3--(3)-3--------|
G#5 PM||--------------|--------------------------------||--------------|--------------------------------||-2---2-2------|--------------------------------||-2---2-2------|-----------2-2-2-----------2/---||-0---0-0--0-0-|-----------0-0-0-----------0----||--------------|-3b4==(3)r-------3b4==(3)r------|
Q=140 B5 F# B5 C#5 F#5 PM||-------------|-3-----------|------------------|--------------||-------------|-3-----------|------------------|--------------||-5----5------|-4-----------|-5---5-5--5-(5)s7-|--------------||-5----5------|-5----5--5-5-|-5---5-5--5-(5)s7-|-5----5--x-x--||-3----3--3-0-|-5----5--5-5-|-3---3-3--3-(3)s5-|-5----5--x-x--||-------------|-3----3--3-3-|------------------|-3----3--x-x--|
C# Gtr IV TPTPTPTP|-2----2----|-2-------------|||-3----3----|-3------------o|||-2----2----|-2-------------|||-0----0----|-0-------------|||-----------|--------------o|||-----------|------xsxsxsx--||
Chorus 2.142 B5 F# Gtr III PM||-------------|-3--(3)----------||-------------|-3--(3)----------||-5----5------|-4--(4)----------||-5----5------|-5--(5)-------2--||-3----3--3-0-|-5--(5)---2-5----||-------------|-3--(3)-3--------|
G#5 PM||--------------|--------------------------------||--------------|--------------------------------||-2--2--2------|--------------------------------||-2--2--2------|-----------2-2-2-----------2/---||-0--0--0--0-0-|-3b4==(3)r-0-0-0-----------0----||--------------|-----------------3b4==(3)r------|
B5 F# G#5 PM||-------------|-3--(3)---------|--------------||-------------|-3--(3)---------|--------------||-5----5------|-4--(4)---------|-2--2--2--2-2-||-5----5------|-5--(5)------2--|-2--2--2--2-2-||-3----3--3-0-|-5--(5)--2-5----|-0--0--0--0-0-||-------------|-3--(3)---------|--------------|
|---------------------------------||---------------------------------||---------------------------------||-----------2-2-2-----------2-----||-3b4==(3)r-0-0-0-----------0-----||-----------------3b4==(3)r---3/--|
B5 F# PM||-------------|-3--(3)----------||-------------|-3--(3)----------||-5----5------|-4--(4)----------||-5----5------|-5--(5)-------2--||-3----3--3-0-|-5--(5)---2-5----||-------------|-3--(3)-3--------|
G#5 PM||--------------|--------------------------------||--------------|--------------------------------||-2---2-2------|--------------------------------||-2---2-2------|-----------2-2-2-----------2/---||-0---0-0--0-0-|-----------0-0-0-----------0----||--------------|-3b4==(3)r-------3b4==(3)r------|
Q=140 B5 F# B5 C#5 PM||-------------|-3-----------|-------------------||-------------|-3-----------|-------------------||-5----5------|-4-----------|-5---5-5--5-(5)s7--||-5----5------|-5----5--5-5-|-5---5-5--5-(5)s7--||-3----3--3-0-|-5----5--5-5-|-3---3-3--3-(3)s5--||-------------|-3----3--3-3-|-------------------|
Q=142 F#5 C#5 Gtr V ~~~~~~~~~~|-------------------------||------10----(10)-------||-----------8b10==(8)-(8)-||-(8)r-------------8b10r||-------------------------||-----------------------||-------------------------||-----------------------||-------------------------||-----------------------||-------------------------||-----------------------|
|
| Gtr III|-------------------------||-----------------------||-------------------------||-----------------------||-------------------------||--7--------------------||-5----5--x-x-------------||--7--------------------||-5----5--x-x-------------||--5--------------------||-3----3--x-x-------------||-----------------------|
B5 ~~~~~~~~~~~~~|--------------------------------------||-(8)-6---8b10r(8)-6-----6b6.5====(6)--||-------7------------7-7---------------||--------------------------------------||--------------------------------------||--------------------------------------|
|
|--------------------------------------||--------------------------------------||--5----5----------5---5--------5------||--5----5----------5---5--------5------||--3----3----------3---3--------3------||--------------------------------------|
Bridge Q=141 A#5 G#5 D#5 C#5 D#5 ~ ~~~~~~~~~~~~~~~~~~~ ~|-------------------|---------------|----------------||--------------------||-(6)---6-6r--------|---------------|----------------||--------------------||------------7--5---|---------------|----------------||--------------------||-----------------7-|-(7)-----------|-(7)------------||-----5-----7---7----||-------------------|---------------|--------------5h||=7-9----------------||-------------------|---------------|----------------||--------------------|
|
|-------------------|---------------|----------------||--------------------||-------------------|---------------|----------------||--------------------||--4--4---4--4------|--2--2---2-2---|--2--2---2-2----||-9---9-(9)s7-7s9----||--4--4---4--4------|--2--2---2-2---|--2--2---2-2----||-9---9-(9)s7-7s9----||--2--2---2--2------|--0--0---0-0---|--0--0---0-0----||-7---7-(7)s5-5s7----||-------------------|---------------|----------------||--------------------|
D#5 E#5F#5 E#5 D#5 E#5|---------------------------------------||---------------------------------------||---------------------------------------||-(7)--7---------7---------5h====7p===5-||---------------------------------------||---------------------------------------|
|
|---------------------------------------||---------------------------------------||-(9)--9-(9)s11-12-(12)s11-9-(9)s==11---||-(9)--9-(9)s11-12-(12)s11-9-(9)s==11---||-(7)--7-(7)s=9-10-(10)s=9-7-(7)s===9---||---------------------------------------|
A#5 G#5 C#A#5 C#F#5 E#5D#5 C#5|-------------------|---------------------------------||-------------------|---------------------------------||-------------------|---------------------------------||-------------------|---------------------------------||-5-----------------|-(5)---------------------------5-||-------------------|---------------------------------|
|
|-------------------|---------------------------------||-------------------|---------------------------------||-4--4p2h4-(4)s7-4--|-(4)--4-(4)s7-12-(12)s11-9-(9)s7-||-4--4-2-4-(4)s7-4--|-(4)--4-(4)s7-12-(12)s11-9-(9)s7-||-2--2p0h2-(2)s5-2--|-(2)--2-(2)s5-10-(10)s=9-7-(7)s5-||-------------------|---------------------------------|
D#5 C#5 D#5|---------------------||---------------------||---------------------||-----5-----7---/9----||-7-9-----------------||---------------------|
|
|---------------------||---------------------||-9---9-(9)s7-7s=9----||-9---9-(9)s7-7s=9----||-7---7-(7)s5-5s=7----||---------------------|
E#5F#5 E#5D#5 E#5 D#5 A#5 G#5 C#A#5 ~~~~~~~~~~~~~~~~~ ~|-------------------------------------------|--------------------||-------------------------------------------|--------------------||-------------------------9p=======7p=====6-|-7------------------||-(9)-----------(9)-------------------------|--------------------||-------------------------------------------|--------------------||-------------------------------------------|--------------------|
|
|-------------------------------------------|--------------------||-------------------------------------------|--------------------||-(9)--9-(9)s11-12--(12)s11-9-(9)s11-(11)s9-|-4--4p2h4-(4)s7-4---||-(9)--9-(9)s11-12--(12)s11-9-(9)s11-(11)s9-|-4--4-2-4-(4)s7-4---||-(7)--7-(7)s=9-10--(10)s=9-7-(7)s=9--(9)s7-|-2--2p0h2-(2)s5-2---||-------------------------------------------|--------------------|
D#5 C#5 D#5 E#5F#5 E#5D#5 E#5 D#5 ~~~ ~~~~~~~~~~~~~~~~~~~~~~~~|---------------|-------------------|------------------------------------------||---------------|-------------------|------------------------------------------||-(7)---------7s|=9-----------------|-(9)--9------7----------------------------||--------9-9----|-------------------|----------------9p======7-5h=====7--------||---------------|-------------------|------------------------------------------||---------------|-------------------|------------------------------------------|
|
| ~|---------------|-------------------|------------------------------------------||---------------|-------------------|------------------------------------------||-(4)-----------|-9--9-(9)s7-7s9----|-(9)--9-(9)s11-12-(12)s11-9-(9)s11-(11)s9-||-(4)-----------|-9--9-(9)s7-7s9----|-(9)--9-(9)s11-12-(12)s11-9-(9)s11-(11)s9-||-(2)----2------|-7--7-(7)s5-5s7----|-(7)--7-(7)s=9-10-(10)s=9-7-(7)s=9--(9)s7-||----------3----|-------------------|------------------------------------------|
A#5 G#5 C#A#5 C#F#5 E#5D#5 C#5 D#5 C#5 D#5|--------------------|---------------------------------|---------------------||--------------------|---------------------------------|---------------------||--------------------|---------------------------------|---------------------||-5p4----------------|---------------------------------|-----5-----7---/9----||-----5--------------|-(5)---------------------------5-|-7-9-----------------||--------------------|---------------------------------|---------------------|
|
|--------------------|---------------------------------|---------------------||--------------------|---------------------------------|---------------------||-4---4p2h4-(4)s7-4--|-(4)--4-(4)s7-12-(12)s11-9-(9)s7-|-9---9-(9)s7-7s=9----||-4---4-2-4-(4)s7-4--|-(4)--4-(4)s7-12-(12)s11-9-(9)s7-|-9---9-(9)s7-7s=9----||-2---2p0h2-(2)s5-2--|-(2)--2-(2)s5-10-(10)s=9-7-(7)s5-|-7---7-(7)s5-5s=7----||--------------------|---------------------------------|---------------------|
D#5 E#5F#5 E#5D#5 E#5 D#5 ~~~~~~~~~~~~~~~~~|-------------------------------------------||-------------------------------------------||-------------------------9p=======7p=====6-||-(9)-----------(9)-------------------------||-------------------------------------------||-------------------------------------------|
|
|-------------------------------------------||-------------------------------------------||-(9)--9-(9)s11-12--(12)s11-9-(9)s11-(11)s9-||-(9)--9-(9)s11-12--(12)s11-9-(9)s11-(11)s9-||-(7)--7-(7)s=9-10--(10)s=9-7-(7)s=9--(9)s7-||-------------------------------------------|
A#5 G#5 C#A#5 ~~~~~~~~~~~~~~~~~~~~~~~~|-------------------|-----------------|||-------------------|-----------------|||-7-----------------|-(7)-------------|||-------------------|-----------------|||-------------------|-----------------|||-------------------|-----------------||
|
|-------------------|-----------------|||-------------------|-----------------|||-4--4p2h4-(4)s7-4--|-(4)-------------|||-4--4-2-4-(4)s7-4--|-(4)-------------|||-2--2p0h2-(2)s5-2--|-(2)----2--------|||-------------------|----------3-2h3--||
Guitar Solo Q=145 D#5|---15p12----15p12-------12-------------------------------||---------15-------15b17----15p12-------12h15p12-------15-||---------------------------------14b16----------14b16----||---------------------------------------------------------||---------------------------------------------------------||---------------------------------------------------------|
|
|---------------------------------------------------------||---------------------------------------------------------||---------------------------------------------------------||-2-------------------------------------------------------||-2-------------------------------------------------------||-0-------------------------------------------------------|
B5|---------------------------------------------------||---------------------------------------------------||-14p=12h14p12h14p12--------------------------------||--------------------14p12h14p12----14p12----12-----||--------------------------------14-------14-----14-||---------------------------------------------------|
|
|---------------------------------------------------||---------------------------------------------------||---------------------------5----------------(5)S===||-(2)-----------------------5----------------(5)S===||-(2)-----------------------3----------------(3)S===||-(0)-----------------------------------------------|
C#5|----------------------------------------14-|-(14)---12p10----14--14-15-14-||-------------------------------12-15p12----|--------------12--------------||----------------12----12h14s16-------------|------------------------------||----------12h14----14----------------------|------------------------------||-10h12s14----------------------------------|------------------------------||-------------------------------------------|------------------------------|
|
|-------------------------------------------|------------------------------||-------------------------------------------|------------------------------||--7----------------------------------------|--(7)-------------------------||--7----------------------------------------|--(7)-------------------------||--5----------------------------------------|--(5)-------------2-----------||-------------------------------------------|----------------------3--2h=3-|
D#5|-12-15p12----12-------12----------------------------||----------15----15b17----15p12-------12-15p12h15p12-||-------------------------------14b16----------------||----------------------------------------------------||----------------------------------------------------||----------------------------------------------------|
|
|----------------------------------------------------||----------------------------------------------------||----------------------------------------------------||--2-------------------------------------------------||--2-------------------------------------------------||--0-------------------------------------------------|
B5 C#5|---------------------------------------------------||---------------------------------------------------||-14p=12-14p12-14p12-12----12-----------------------||-----------------------14----14p12-----------------||-----------------------------------14-12-10---/14--||---------------------------------------------------|
|
|---------------------------------------------------||---------------------------------------------------||---------------------------5-----5----------7------||-(2)-----------------------5-----5----------7------||-(2)-----------------------3-----3----------5------||-(0)-----------------------------------------------|
Q=157 C#5 > ~~~~~~~~~~~~~~~|----------|------------|------------|--------|||----------|------------|------------|--------|||----------|------------|------------|--------|||-7--------|-(7)--------|-(7)--------|-(7)----|||----------|------------|------------|--------|||----------|------------|------------|--------||
|
| >|----------|------------|------------|--------|||----------|------------|------------|--------|||-7--------|-(7)--------|-(7)--------|-(7)----|||-7--------|-(7)--------|-(7)--------|-(7)----|||-5--------|-(5)--------|-(5)--------|-(5)----|||----------|------------|------------|--------||
Moderately Q=146 H.=H 4/4 Gtr I|-------1p0-------|-3-----3-------|-------1p0---------|---------------------||-----3-----3-----|---0------0----|-----3-----3-------|-----------0---------||---2---------2---|------------2--|---2---------2-----|-----0---------------||-0-------------0-|-----0---------|-0-----------------|---2-----0---2b2.5p0-||-----------------|---------------|---------------0h2-|-3-----2-------------||-----------------|---------------|-------------------|---------------------|
|-------1p0-------|-3-----3-------|-------1p0---------|----------------------|||-----3-----3-----|---0------0----|-----3-----3-------|-----------0----------|||---2---------2---|------------2--|---2---------2-----|-----0----------------|||-0-------------0-|-----0---------|-0-----------------|---2-----0---2b2.5p0--|||-----------------|---------------|---------------0h2-|-3-----2--------------|||-----------------|---------------|-------------------|----------------------||
4th Verse Q=138|-------1p0-------|-3-----3-------|-------1p0---------|----------------------||-----3-----3-----|---0------0----|-----3-----3-------|-----------0----------||---2---------2---|------------2--|---2---------2-----|-----0----------------||-0-------------0-|-----0---------|-0-----------------|---2-----0---2b2.5p0--||-----------------|---------------|---------------0h2-|-3-----2--------------||-----------------|---------------|-------------------|----------------------|
Q=139||--------1p0-------|-3-----3-------|||o-----3-----3-----|---0------0----|||----2---------2---|------------2--|||--0-------------0-|-----0---------|||o-----------------|---------------|||------------------|---------------|
3x|-------1p0---------|----------------------|||-----3-----3-------|-----------0---------o|||---2---------2-----|-----0----------------|||-0-----------------|---2-----0---2b2.5p0--|||---------------0h2-|-3-----2-------------o|||-------------------|----------------------||
3rd Chorus Q=141 B5 F# Gtr III PM||-------------|-3--(3)----------||-------------|-3--(3)----------||-5----5------|-4--(4)----------||-5----5------|-5--(5)-------2--||-3----3--3-0-|-5--(5)---2-5----||-------------|-3--(3)-3--------|
G#5 PM||--------------|--------------------------------||--------------|--------------------------------||-2--2--2------|--------------------------------||-2--2--2------|-----------2-2-2-----------2/---||-0--0--0--0-0-|-----------0-0-0-----------0----||--------------|-3b4==(3)r-------3b4==(3)r------|
B5 F# G#5 A#5 B5 PM||-------------|-3--(3)----------|-----------|---------------||-------------|-3--(3)----------|-----------|---------------||-5----5------|-4--(4)----------|-2----4----|-5----7---(7)\-||-5----5------|-5--(5)-------2--|-2----4----|-5----7---(7)\-||-3----3--3-0-|-5--(5)---2-5----|-0----2----|-3----5---(5)\-||-------------|-3--(3)-3--------|-----------|---------------|
B5 F# PM||-------------|-3--(3)----------||-------------|-3--(3)----------||-5----5------|-4--(4)----------||-5----5------|-5--(5)-------2--||-3----3--3-0-|-5--(5)---2-5----||-------------|-3--(3)-3--------|
G#5 PM||--------------|--------------------------------||--------------|--------------------------------||-2---2-2------|--------------------------------||-2---2-2------|-----------2-2-2-----------2/---||-0---0-0--0-0-|-----------0-0-0-----------0----||--------------|-3b4==(3)r-------3b4==(3)r------|
Q=142 B5 F# B5 C#5 F#5 PM||-------------|-------------|------------------|--------------||-------------|-------------|------------------|--------------||-5----5------|-------------|-5---5-5--5-(5)-5-|--------------||-5----5------|-5----5--5-5-|-5---5-5--5-(5)-5-|-5----5--x-x--||-3----3--3-0-|-5----5--5-5-|-3---3-3--3-(3)-3-|-5----5--x-x--||-------------|-3----3--3-3-|------------------|-3----3--x-x--|
Outro Q=143 C#5 B5 G#5 A#B5 A#B5 PM PM----| PM|------------|-----------------||--------------|-------------------||------------|-----------------||--------------|-------------------||-7---7-7----|-----------------||-2---2-2------|---4-5---4-5--(5)\-||-7---7-7----|-0---------------||-2---2-2------|---4-5---4-5--(5)\-||-5---5-5----|---3-2-3-2-----3-||-0---0-0--0-0-|-0-2-3-0-2-3--(3)\-||------------|-----------3-5---||--------------|-------------------|
G#5 F#5 C#5 G#5 A#B5 A#B5 PM PM|-------------|-^3----------|--------------|------------------||-------------|-^3----!3----|--------------|------------------||-2---2-2-----|-^0----!2----|-2---2-2--2-2-|--4-5---4-5--(5)\-||-2---2-2-----|-------!0----|-2---2-2--2-2-|--4-5---4-5--(5)\-||-0---0-0--0--|-------------|-0---0-0--0-0-|--2-3-0-2-3--(3)\-||-------------|-------------|--------------|------------------|
G#5 F#5 C#5 G#5 A#B5 A#B5 PM PM----| PM|-------------|-3---------|--------------|-------------------||-------------|-3----3----|--------------|-------------------||-2---2-2-----|-0----2----|-2---2-2------|---4-5---4-5--(5)\-||-2---2-2-----|------0----|-2---2-2------|---4-5---4-5--(5)\-||-0---0-0--0--|-----------|-0---0-0--0-0-|-0-2-3-0-2-3--(3)\-||-------------|-----------|--------------|-------------------|
Q=144 G#5 F#5 C#5 G#5 A#B5 A#B5 PM PM|-------------|-3---------|--------------|------------------||-------------|-3----3----|--------------|------------------||-2---2-2-----|-0----2----|-2---2-2--2-2-|--4-5---4-5--(5)\-||-2---2-2-----|------0----|-2---2-2--2-2-|--4-5---4-5--(5)\-||-0---0-0--0--|-----------|-0---0-0--0-0-|--2-3-0-2-3--(3)\-||-------------|-----------|--------------|------------------|
G#5 F#5 C#5 G#5 PM|-------------|-3---------|------------*||-------------|-3----3----|------------*||-2---2-2-----|-0----2----|-2--2-2-----*||-2---2-2-----|------0----|-2--2-2-----*||-0---0-0--0--|-----------|-0--0-0-----*||-------------|-----------|------------*|
Tap to rate this tab
 
# A B C D E F G H I J K L M N O P Q R S T U V W X Y Z