Black Sabbath - Wicked World tab

Black Sabbath
Wicked World

A badass song by Black Sabbath

|----------------------------------------------------||-12-----------12------------------------------------||----14-12~-------14-12~-----------------------------||-----------14-----------14--14--12--14--------------||----------------------------14--12--14--------------||----------------------------12--10--12--------------|
|---------------------------------------------------------------||---------------------------------------------------------------||--------------5-7^-^7p5-7p5------------------------------------||-------7--5h7---------------7--7------5-7-5---5h7--------------||-------7-----------------------7--5h7-------7------------------||-------5-----------------------5-------------------------------|
|----------------------------------------------------------||----------------------------------------------------------||----------------------------------------------------------||-7--10--12----7--10--12----7-10--12----14\----------------||-7--10--12----7--10--12----7-10--12----14\----------------||-5---8--10----5---8--10----5--8--10----12\----------------|
|---------------------------------------------------------------||---------------------------------------------------------------||---------------------------------------------------------------||---------------------------------------------------------------||-5h7-5---------5h7-5---------5h7-5---------5h7-5---------------||-------7-6-5-3-------7-6-5-3-------7-6-5-3-------7-6-5-3--0----|
|----------------------------------------------------------------------||----------------------------------------------------------------------||-------------------------------------------------12~~-----------------||--------5-------------------5-------------/14-14----14-14-14-14-12----||--5h7-7----7-7-7-7-5--5h7-7----7-7-7-7-5------------------------------||----------------------------------------------------------------------|
|-------------------------------------||-------------------------------------||-------------------------------------||-------------------------------------||-7h9-7----------9h11-9---------------||-------9-8-7-5---------11-10-9-7---0-|
|---0-----0-----0-----0-----0------0-----0-----0-----0-----0-----0-----0---||-----0-----0-----0-----0-----0------0-----0-----0-----0-----0-----0-----0-||--------------------------------------------------------------------------||-------------------------9-----10-----9-----------------------------------||-12----12----12----12-----------------------12----10----------------------||--------------------------------------------------------12----10----12----|
|---0-----0-----0-----0-----0-----0------0-----0-----0-----||-----0-----0-----0-----0-----0-----0------0-----0-----0---||----------------------------------------------------------||-------------------------------9-----10-----9-------------||-------------------------12-----------------------12------||-12----12----12----12-------------------------------------|
|---0-----0-----0-----0-----0-----0-----0-----0-----0-----0-----0---||-----0-----0-----0-----0-----0-----0-----0-----0-----0-----0-----0-||-------------------------------------------------------------------||-------------------------------------------------12----12----12----||-10----------------------------------------------------------------||-------12----10----12----12----12----12----12----------------------|repeat
Solo:|-------------12-------------------------||----------------15p12-------------------||----12-12-14^---------14^p12------------||-14--------------------------14-14\-----||----------------------------------------||----------------------------------------|
|-------------------------------------------------------------||-------------------------------------------------------------||-------------------------------------------------------------||----12-12-14p12-------12-12-14p12-------12-12-14p12----12-14-||-14-------------14-14-------------14-14-------------14-------||-------------------------------------------------------------|
|-------------------------------------------------||--------------12-15p12-15^-15-12-----------------||----12-12-14^--------------------14^p12-14-12~~--||-14----------------------------------------------||-------------------------------------------------||-------------------------------------------------|
|----------------------------------------------------------||----------------------------------------------------------||----------------------------------------------------------||----12-12-14p12-------12-12-14p12-------12-12-14p12-------||-14-------------14-14-------------14-14-------------14----||----------------------------------------------------------|
|------------------------12---15-15p12------------------12----||----------------------12--15----------15-15p12-------12--15^-||-12-12-14p12----12-14^-------------------------12-14^--------||-------------14----------------------------------------------||-------------------------------------------------------------||-------------------------------------------------------------|
|-12------------------12h15-12h15p12h15p12--12-------------||----15p12--------------------------------12---15p12-------||----------14^p12-14^--------------------------------14^---||----------------------------------------------------------||----------------------------------------------------------||----------------------------------------------------------|
|------------------------------------------------||----12-12---------------------------------------||-14-------16^p14-16p14-12-14-16-16^p14-14-12\---||------------------------------------------------||------------------------------------------------||------------------------------------------------|
Tap to rate this tab
 
# A B C D E F G H I J K L M N O P Q R S T U V W X Y Z