Black Sabbath – Hard Road tab

Band: Black Sabbath
Song: Hard Road
Album: Never Say Die
Tuning: Standard

There aren't aby tabs for this song so i decided to do it myself. This is as accurate as you can get! Enjoy!|------------------------|------------------------||------------------------|------------------------||------------------------|------------------------||------------------------|------------------------||-2--2--2--2--2--2--2--2-|-2--2--2--2--2--2--2--2-||------------------------|------------------------|
|----------------------|----------------------------||--------------2--4-4--|--------2--4-4--------------||-------4p2----2--4-4--|-4p2----2--4-4--4p2---------||-----------4----------|-----4--------------4-------||-2--2-----------------|----------------------2--2--||----------------------|----------------------------|
chorus:"oh its hard road..."|-----------------------------------||-----------------------------------||-4--4--4-4--4-4--4-4--2--2--2-2-9--||-4--4--4-4--4-4--4-4--2--2--2-2-9--||-2--2--2-2--2-2--2-2--0--0--0-0-7--||--------------------------------0--|
|------------------------------------------------||---------------------------------2---4-4---4-4--||----------------------------4----2---4-4---4-4--||-4-4-/6-4---4--4-4-/6-4-4/6---4--2---4-4---4-4--||------------------------------2-----------------||------------------------------------------------|
|------------------------------------------------||---------------------------------2---4-4---4-4--||---------------------------------2---4-4---4-4--||-4-4-/6-4------4-4-/6-4--2-4--4--2---4-4---4-4--||------------------------------2-----------------||------------------------------------------------|
solo:|------------------------------------------------||-2-3-2-----------5-4-2---------------2-3-2------||-------4~~~~----------2---2-2-2~~~---------4~~--||------------------------4-----------------------||------------------------------------------------||------------------------------------------------|
|--7---7-----7---7----------------10--10----10--10--||-10^-10^---10^-10^---5-3-2-------13^-13^---13^-13^-||--------------------------2---2--------------------||----------------------------4----------------------||---------------------------------------------------||---------------------------------------------------|
|--7---7---7---7---------------------------------------||-10^-10^-10^-10^--------------------------------------||---------------------------------4-4---4-4---4-6^-6-4-||-----------------------------/4h6---4h6---4h6---------||------------------------------------------------------||--------------------7-5--5h7--------------------------|
b r r|-------------------------------------------||----5-6-7----------------------------------||-6^-------4--6-4-6864-6---4-6p4-7^^^6-4-4--||------------------------6------------------||-------------------------------------------||-------------------------------------------|
|-----------7~~\\---------7~~\\---------------------||-------7-9-----------7-9---------------------------||-4-6/8------------/8-----------7^6^-4-4-6-8^6^-4-4-||---------------------------------------------------||---------------------------------------------------||---------------------------------------------------|
|-------------------------------------------------||-----7-----------7-----------7-----------7-------||-6/8---8\6-4-6/8---8\6-4-6/8---8\6-4-6/8---8\6-4-||-------------------------------------------------||-------------------------------------------------||-------------------------------------------------|
|------------------------------------------------------||-3/5-5^5^5^5^5^5^----5-5------5------3----------------||------------------6^-----6^-4---6^-4--4-2-------------||-----------------------------------------4-3-2-2------||----------------------------------------------5-5-4-2-||------------------------------------------------------|
Please rate this tab:
x1.0