Black Sabbath - Dehumanizer tab

#----------------------------------PLEASE NOTE----------------------------------#
# This file is the author's own work and represents their interpretation of the #
# song. You may only use this file for private study, scholarship, or research. #
#-------------------------------------------------------------------------------#

Band: Black Sabbath
Album: Dehumanizer
Tab by: Rodrigo "R0D Z0MBIE" Espichan
E-mail: rodzombie_89@hotmail.com
        rod_zakkwylde@hotmail.com

Track Listing
----- -------
1- Computer God
2- After All (The Dead)
3- TV Crimes
4- Letters From Earth
5- Master Of Insanity
6- Time Machine
7- Sins Of The Father
8- Too Late
9- I
10- Buried Alive

Good Luck!
_________________________________________________________________________________
1) Computer God

fig A|----------------------------------------------------------||----------------------------------------------------------||--9-9-9--10-10-10--9-9-9------------------------9---------||--9-9-9--10-10-10--9-9-9---12-12/14-12-10-12\10-9---------||--7-7-7---8--8--8--7-7-7---10-10/12-10--8-10\-8-7---------||----------------------------------------------------------|
|---------------------------------------------------------------------------||---------------------------------------------------------------------------||----------------------(3)-----1h3p1-----1h3p1--------(5)----3h5p3---3h5p3--||-2-3-2---2------3----------------------------------------------------------||-------5---5-3--1-1-1-----1-1-------1-1-------3-3-3-3----3-3-----3-3-------||---------------------------------------------------------------------------|
|-------------------------------------------------------------------------||-------------------------------------------------------------------------||--7---9--10--9--7---------------------7---9--10--9--7--------------------||--7---9--10--9--7--8--10-10-----------7---9--10--9--7--8-10-10-----------||--5---7---8--7--5--8--10-10---8p7-----5---7---8--7--5--8-10-10--8p7------||-------------------6---8--8------10p8------------------6--8--8-----10p8--|
|----------------------------------------------------------||----------------------------------------------------------||----------------------------------------------------------||-8/10-10----8/10-10-------------8/10-10---8/10-12---------||-8/10-10----8/10-10----8p7------8/10-10---8/10-12---------||-6/-8--8----6/-8--8-------10p8--6/-8--8---6/-8-10---------|
|---------0-------0--------------------0-------3---------0------||-------6---6-------6-------6\-------3---3-------6p5-3-----3----||-----7-------7-------7---7--------5-------5-----------5--------||---7-----------7-------7--------5-----------5---------------5--||---------------------------------------------------------------||---------------------------------------------------------------|
2nd time:|-------0-------------1------------------------------------||-----3---3---------3---------2----------------------------||---5-------5-----3-----------2----------------------------||-5-----------5-3-------------2----------------------------||-----------------------------0-------Back to fig A--------||----------------------------------------------------------|
|----------------------------------------------------------||----------------------------------------------------------||----------------------------------------------------------||------------------7--6-----------------------7--6---------||-4-4-4-4-4-4-4-4--5--4--7---4-4-4-4-4-4-4-4--5--4--7------||-2-2-2-2-2-2-2-2--------5---2-2-2-2-2-2-2-2--------5------|
"virtual existence..."|----------------------------------------------------------||----------------------------------------------------------||--4----------9-----------7--------------------------------||--4----------9-----------7------------7-------------------||--2----------7-----------5------------7-------------------||--------------------------------------5-------------------|
|---------------------------------------------------------||---------------------------------------------------------||-----------------7-------------------------7-------------||-----------------7-------------------------7-------------||-----------------5-------------------------5-------------||-0-0-0-0-0-0-0-0-----------0-0-0-0-0-0-0-0---------------|_________________________________________________________________________________2) After All (The Dead)
|-------------------------------------------------------------------||-------------------------------------------------------------------||-------------------------------------------------------------------||-------------------------------------------------------------------||---2-1---3---2-----2-1---/5-4-3-2---2-1---3---2---3-2-1------------||-0-----0---------0-----0----------0-----0---------------2---3---0--|
what do you..|-----------------------------------------------------------||-----------------------------------------------------------||-9-----------------------5-----9----------------------5----||-9-----------5--4--3-----5-----9----------5--4--3-----5----||-7-----------5--4--3-----3-----7----------5--4--3-----3----||-0-----------3--2--1-----------0----------3--2--1----------|
|-------------------------------------------------------||-------------------------------------------------------||-9-------------------------9-------------7/8-----------||-9-------------------------9--------8\7--5/6-----------||-7------6h7p6h7p6h7p6h7----7--------6\5----------------||-0-------------------------0---------------------------|
|-------------------------------------------------------------------||-------------------------------------------------------------------||-------------------------------------------------------------------||----------------------0-------------------------------0------------||--------------------2-------3-2---------------------2-------3-2----||--7-0-0-6-0-0-5-0h3-----3-1-----0-7-0-0-6-0-0-5-0h3-----3-1-----0--|
|-------------------------------------------------------||-------------------------------------------------------||--------------------6----------------------------------||--6------4/6-7------6------7---9-----------------------||--6------4/6-7------4------7---9-----------------------||--4------2/4-5-------------5---7-----------------------|
|-----------------------------------------------------------||-----------------------------------------------------------||--9-------5------------------9-------3------------------9--||--9-------5------------------9-------3------------------9--||--7-------3---------2---1----7-------1---------2---1----7--||--------------0-2h3---3---2--------------0-2h3---3---2-----|
|------------------------------------------------------------||------------------------------------------------------------||-9---12-11-10-----------------------------------------------||-9---12-11-10-----------------------------------------------||-7---10--9--8-------------5---5-4~~-------------------------||--------------------0-2h3---3-------------------------------|_________________________________________________________________________________3) TV Crimes
|------------------------------------------------------------------||------|||------------------------------------------------------------------||------|||---------------------------------------------------------5--------||--7---|||--5--------8--------4----------4--5-------8-------4------5--------||--7---|||--5--------8--------4----------4--5-------8-------4------3--3p0---||--5---|||--3--------6--------2--------0h2--3-------6-------2---------------||------||
|---------------------------------------------------------------||---------------------------------------------------------------||---------------------------------------------------------------||---------------------------------------------------------------||-----1-----1-----1-----1-------------1-----1-------------------||-1-3---3-3---3-3---3-3---3-1-3---1-3---3-3---3-3-3-3-3-3-3-3---|
|--------------------------------------------------------------------------||--------------------------------------------------------------------------||----------3------------3---------3--------------3------------3-----8-7--3-||-------0--3-----3------3---------3-----------0--3-----3------3-----8-7--3-||---1-3----1-----3------1---------1-------1-3----1-----3------1-----6-5--1-||-3--------------1--3-3---3-3-3-3---3-3-3--------------1--3-3---3-3--------|
holy father...|------------------------------------------------------------||------------------------------------------------------------||------3---5---7---5-----3-------3-------3---5---7---8-------||--5---3---5---7---5-----3---3---3---5---3---5---7---8-------||--5---1---3---5---3-----1---3---1---5---1---3---5---6-------||--3-------------------------1-------3-----------------------|
|------------------------------------------------------------||------------------------------------------------------------||------------------------------------------------------------||------------------------------------------------------------||-5-4-3---3-------1---0--------/5-4-3---3-------1---0--------||-------6---6-5-3---3---1---3---------6---6-5-3---3---1---3--|
w/ solo|---------------------------------||--------------------------------------------||---------------------------------||--------------------------------------------||--9------7-------9----------7----||--5---4---5---------------------------------||--9------7---7---9------7---7----||--5---4---5---4-5-7-5-7-8-9-11-12-11-12-----||--7------5---7---7------7---5----||--3---2---3---2-3-5-3-5-6-7--9-10--9-10-12--||-------------5----------5--------||----------------------------------------10--|
|---------------------------------------------------------------||---------------------------------------------------------------||---------------------------------------------------------------||---------------------------------------------------------------||-----1-----1-----1-----1-------------1-----1-------------------||-1-3---3-3---3-3---3-3---3-1-3---1-3---3-3---3-3-3-3-3-3-3-3---|_________________________________________________________________________________4) Letters From Earth
|---------------------0---------------------------------------||-------------------1-----1-----------------------------------||---------/7-6----2---------2-------0-----0-------------------||-2-3-5-7-/7-6--3-------------0---2-----0---------------------||-2-4-5-7-/5-4------------------3-----2-----1~----------------||-0-2-3-5-----------------------------------------------------|
|------------------------------------------------------------||------------------------------------------------------------||------------------------------------------------------------||-2--4--5\------------------2--4--5\----------2---0----------||-2--4--5\------------------2--4--5\------------2---1--------||-0--2--3\--0-0-0-0-0-0-0-0-0--2--3\--0-0-0-0----------------|
|------------------------------------------------------------||------------------------------------------------------------||---------9-9------------9------------9-9------------7-------||-2-5\4-2-9-9----2-5\4-2-9----2-5\4-2-9-9---2--5\4-2-5-7-----||-2-5\4-2-7-7----2-5\4-2-7----2-5\4-2-7-7---2--5\4-2---5-----||-0-3\2-0--------0-3\2-0------0-3\2-0-------0--3\2-0---------|
|--------------------------------------------------------------------||--------------------------------------------------------------------||--------------------------------------------------------------------||-------4-5-7-----2--4--5------------------2--4--5----------2---0----||-7-6-7-----------2--4--5------------------2--4--5------------2---1--||-------------6^--0--2--3--0-0-0-0-0-0-0-0-0--2--3--0-0-0-0----------|
what if i send...|------------------------------------------------------------||------------------------------------------------------------||-4-------5---5-5/7-4----5----4-----5--5-5/7-4---2-4-5/7-4-5-||-4-------5---5-5/7-4----5----4-----5--5-5/7-4---2-4-5/7-4-5-||-2-------3---3-3/5-2----3----2-----3--3-3/5-2---0-2-3/5-2-3-||------------------------------------------------------------|
earth...|----------------------------------------------------------------||-------------------------8--------------------------------------||-9-9---------9-9---------7-----9-9--------9-9--------12-11------||-9-9---------9-9---------5-----9-9--------9-9--------12-11------||-7-7---------7-7--7-9-10-------7-7--------7-7--------10--9------||-----0-0-0-0----------------------0-0-0-0----0-0-0-0------------|
this part is a little tricky. It is meant to be played by 2 guitars or more...|-----------0-----------0----------------------------------2-----------------------|X2|-----1p0------/6\--1---3-----5-6-5--------------5-6-------3-3-----5-6-5-----------||---------2----/5\--2---2---7-------7-5--4-----7-----5\----2---2-7-------7-5-4-----||---2----------/7\--3---0---0-2-3-2-0-------7--0-2-3----3--0-----0-2-3-2-0-----7---||-0-----------------------------------3--2--0--------3\--------------------3-2-0---||-------------------------------------------------------1--------------------------|
"I don't want your money..."|---------||-backing for solo----------------------------------------------------------||---------||---------------------------------------------------------------------------||-5-7-4-5-||---------------------------------------------------------------------------||-5-7-4-5-||--9-----9-9-----9---9-9---9-12\11-9-----9-9-----9---9-9---9----------------||-3-5-2-3-||--7-----7-7-----7---7-7---7-10\9--7-----7-7-----7---7-7---7---7-6-7-8-7-6~-||---------||----0-0--0--0-0---0--0--0-----------0-0--0--0-0---0--0--0------------------|_________________________________________________________________________________5) Master Of Insanity
|------------------------------------------||--------||-----------------------------------repeat-||--------||------------------------------------------||-9------||-----------------3-----6-----9-8-6--------||-9------||-7-----4-------2-----5-----8-------8------||-7------||---6-0---3-0-1-----4-----7----------------||--------|
|-----------------------------------------------------------------||-----------------------------------------------------------------||-9---------------5---------------0-----0-----0---0-----0---------||-9------8---9----5------4---5------4-----4---------4-----4-------||-7-7777-7---7--0-3-3333-3---3-/5-----5-----5---4-----3-----0-----||-----------------------------------------------------------------|
|----------------------------------------------------------||----------------------------------------------------------||--------------------------------------5-------------------||--------------------------------------5-------------------||-----7-7---7-7-7---------7-7---7-7-7--3------7-7---7-7-7--||-0-0-----0-----------0-0-----0-----------0-0-----0--------|
---------------|---------------|---------------|--9---8---5----|--9---8---5----|--7---6---3----|
"your freedom is gone..."|----------------------------------------------------------||-------0-----5--5-----5--6-5----7--7----------------------||-----5---5---5----5---5------5\-7----7--------------------||---7-------7-7------7-7---------7------7------------------||-0--------------------8---------9--------9----------------||----------------------------------------------------------|
|----------------------------------------------------------||----------------------------------------------------------||----------------------------------------------------------||----------------------------------------------------------||------9--10-\----------/9--7--5-4---------9--10-\---------||-7--------------5--7--------------7-5-7-------------5--7--|_________________________________________________________________________________6) Time Machine
|-------------------------------------------------------||-------------------------------------------------------||----------5-----4--------------------------------------||----------5-----4--------------------------------------||----4-4-4-3-----2-p0-4-4-4-3--4-4-4-4-4-4-4-4-4-4-4----||--0h2-2-2------------2-2-2-1--2-2-2-2-2-2-2-2-2-2-2----|
|------------------------------------------------------------||------------------------------------------------------------||-------2-----------------4--2h4--------2--------------------||-------2-----------------4--2h4--------2--------------------||-4-4-4---4-4-4-4-4-4-4-4---------4-4-4---4-4-4-4-4-4--------||-2-2-2---2-2-2-2-2-2-2-2---------2-2-2---2-2-2-2-2-2-0-0h1--|
|-------------------------------------------------------||-------------------------------------------------------||-----------------2--2-2--5-4---------------------------||-----------------2--2-2--5-4-5-------------------------||-------4-3-2-0---0--0-0--3-2-5-------------------------||-0-1-2-----------------------3-------------------------|
|---------------------------------------------||---------------------------------------------||---------------9--9-9--8--8-8--7--7-7--6-----||---------------9--9-9--8--8-8--7--7-7--6--7--||-------4-3-2-0-7--7-7--6--6-6--5--5-5--4--7--||-0-1-2------------------------------------5--|
|---------------------------------------------------||---------------------------------------------------||------------------------------------2------5-4-----||------------------------------------2------5-4-----||-4---4-0-4-4-4-4-4-4-4-0-4---4-0-4--0---4--3-2-----||-2p0-2---2-2-2-2-2-2-2---2-0-2---2----0h2----------|
|------------------------------------------------------------------------||------------------------------------------------------------------------||-9--9-9----------------7--7-7---------------6--6-6---------------2-2-4--||-9--9-9---------7p6----7--7-7--------7p6----6--6-6--------7p6----2-2-4--||-7--7-7-----5h7-----7--5--5-5----5h7-----7--4--4-4----5h7-----7--0-0-2--||----------7--------------------7--------------------7-------------------|
|-------------------------------------------------------||-------------------------------------------------------||-------------------------------------------------------||--------------------------------4----------------------||----7-6---6-5---5-4---4-3---3-2-4----------------------||--0-----0-----0-----0-----0-----2----------------------|_________________________________________________________________________________7) Sins Of The Father
|-----------------------------------------------------------------------||------------------------------------------------------8---7-8-7h8p7----||--7-------5-----4---5---7---------7-------5-----4-------------------7--||--0-0-0-0-0-0-0-0-0-0-0-0-0-0-0-0-0-0-0-0-0-0-0-0-0-0-0-0-0-0-0--------||-----------------------------------------------------------------------||-----------------------------------------------------------------------|
|----------------------------------------------------------||----------------------------------------------------------||--5---------7----7------5---------7----7/9--5-------------||--5----5----7----7--2-4-5----5----7----7/9--5-------------||--3----5----5----5--0-2-3----5----5----5/7--3-------------||-------3---------------------3----------------------------|
|----------------------------------------------------------||----------------------------------------------------------||---9--8---5--4---------------/9--8---5--4-----------------||---9--8---5--4--/5--4--2-----/9--8---5--4-----------------||---7--6---3--2--/5--4--2-----/7--6---3--2-----------------||-0--------------/3--2--0-------------------0-0-0-0--------|
|----------------------------------------------------------||----------------------------------------------------------||----------------------------------------------------------||----------------------------------------------------------||--------2-1---------5-4---------2-1-------------2-1-------||--0-2-3-------0-2-3-------0-2-3-------3-2-0-2-3-----------|
|----------------------------------------------------------||----------------------------------------------------------||------------------------9---9-----------------------------||-----9-----12-----9-----7-8-7h8p7-------------------------||-----7-----10-----7---------------------------------------||-0-0---0-0----0-0---0-0-----------------------------------|_________________________________________________________________________________8) Too Late
|-------3-----0---------------------------3-----0----------------------||-----0---------0-------0-----0---------0---------0-------0-----0------||---0-----------------4-----0---------0-----------------4-----0--------||-2---------2-------5-----4-------4-2---------2-------5-----4-------4--||-------------------------------5---------------------------------5----||----------------------------------------------------------------------|
|-------3-----0-------------------------0---------------0--------||-----0---------0-------0-----0-------------0-------------0------||---0-----------------4-----0---------2-------2-------0-----0----||-2---------2-------5-----4---------2-----------2---2---------2--||-------------------------------5-4---------------3--------------||----------------------------------------------------------------|
|---------0---------------0---------------0---------------0--------||-------0---------------0---0-----------0---------------0---0------||-----0---------------0-------0-------0---------------0-------0----||---2---------------2-----------2---2---------------2-----------2--||---------------5-4-----------------------------4-3----------------||-0---------0-2-------------------0---------0-2--------------------|
|---------0----------------------------------------------------||-------0---------------0--------------------------------------||-----0---------------2----------------------------------------||---2---------------1------------------------------------------||---------------3-2--------------------------------------------||-0---------0-2-----------1---0--------------------------------|
|--------------------------------------------------------------------||--------------------------------------------------------------------||--------------------------------------------------------------------||-9--9-9---------------9--9-9---------------9--9-9---------------2---||-7--7-7--2-4-5-4~~~~--7--7-7--2-4-4-3~~~~--7--7-7--2-4-3-2~~----2---||-0--0-0--0-2----------0--0-0--0-2----------0--0-0--0-2-------1~-0---|
|---------------------------------------------------------------------------||---------------------------------------------------------------------------||-12/14-2-2----------5-5---12/14-2-2----12/14-2-2----------5-5---12/14--10--||-12/14-2-2----------5-5---12/14-2-2----12/14-2-2----------5-5---12/14--10--||-10/12-0-0----0-3-0-------10/12-0-0----10/12-0-0----0-3-0-------10/12---8--||---------------------------------------------------------------------------|
|--------------------------------------------------------------------||--------------------------------------------------------------------||-9-7-9--------------9-7-9--------------9-7-9------------------------||-9-7-9--------------9-7-9--------------9-7-9--------------2---------||-7-5-7--2-4-5-4~~---7-5-7--2-4-4-3~~---7-5-7--2-4-3-2~----2---------||--------0-2----------------0-2----------------0-2------1~-0---------|_________________________________________________________________________________9) I
|-------------------------------------------------------||-------------------------------------------------------||-------------------------------------------------------||------5-----------------------------5------------------||----5---7-------------------------5---7----------------||-/7---------0----/7-5-3^-0-----/7--------0--/7-5-3^-0--|
|---------------------------------------------------------------------||---------------------------------------------------------------------||---------------------------------------------------------------------||--7h9---------7h9---------7h9-----7h10---------7h10---------10h12\---||--7-----------7-----------7-------7------------7------------10-------||------0-0-0-0-----0-0-0-0-----0-0------0-0-0-0------0-0-0-0----------|
|---------------------------------------------------------------------||---------------------------------------------------------------------||--9----7--9--5-----12/14--7-11--9----7--9--5-------------------------||--9----7--9--5-----12/14--7-11--9----7--9--5-------------------------||--7----5--7--3-----10/12--5--9--7----5--7--3-------------------------||---------------------------------------------------------------------|
|----------------------------------------------------------------------||----------------------------------------------------------------------||-----9-8----10-9------------------------9-8----10-9-------------------||-----9-8----10-9------------------------9-8----10-9-------------------||-----7-6-----8-7-----7-6-----7----------7-6-----8-7-----7-6-----7-----||-0-0-----0-0-----0-0-----7-6---6-5--0-0-----0-0-----0-0-----7-6---5---|
Pre-solo (w/ 1st fig.)|---------------------15----------------17^--17p(15)--17^-----15-12-------||-----------------15^----15-15^---------------------17--------------15----||-14^-12~--------------------------------------------------------------12-||-------------------------------------------------------------------------||-------------------------------------------------------------------------||-------------------------------------------------------------------------|
solo:|------------------------------------------12--------------||(12)~~-------------------------12-----15^----15p12-15^----||-12~~~---12--14-12-14----14-12-14^------------------------||----------------------14----------------------------------||----------------------------------------------------------||----------------------------------------------------------|
|-12---------12--------------------------------------------||----12-15^-----15p12-----15-------------------------------||---------------------14^----14-12h14p12h14-12----------12-||----------------------------------------------14p12h14----||----------------------------------------------------------||----------------------------------------------------------|
|----------------------------------------------------------||----------------------------------------------------------||-------------------------12h14p12h14p12-------------------||-12h14p12h14p12h14p12h14----------------12h14p12h14-------||----------------------------------------------------------||----------------------------------------------------------|
|-------------------------------------------15^------------||-------------------------------------12h15----------------||-12h14p12h14p12-------------12h14p12----------------------||----------------12h14p12h14-------------------------------||----------------------------------------------------------||----------------------------------------------------------|
|-12---------12--------------------------------------------||----12-15^-----15p12-----15-------------------------------||---------------------14^----14-12h14p12h14-12----------12-||----------------------------------------------14p12h14----||----------------------------------------------------------||----------------------------------------------------------|
------------------------------------------------------------------||-------------------------------------------------------------15^-||-14\---------------------------------------12----14^14-14p12-----||-----12h14p12-12-------12------------12-14----14-----------------||-----------------12h14----10~\---/14-----------------------------||-----------------------------------------------------------------|
|-12-------15^-15-12-17^-17-15------------17^--^\-\-\-\----||----15-12---------------------17^-17^p15------------------||----------------------------------------------------------||----------------------------------------------------------||----------------------------------------------------------||----------------------------------------------------------|_________________________________________________________________________________10) Buried Alive
|--------------------------------------------------------------||--------------------------------------------------------------||--------------------------------------------------------------||--------------------------------------------------------------||-4-3-2-3-4-3-2-3-4-3-2-3-4-5----4-3-2-3-4-3-2-3-4-3-2-3-4-5---||-2-1-0-1-2-1-0-1-2-1-0-1-2-3----2-1-0-1-2-1-0-1-2-1-0-1-2-3---|
|----------------------------------------------------------------||----------------------------------------------------------------||-------------------------------------------------------------4--||-------------------------------------------------------------4--||-------6---7-------6-----7p6----------6---7-------6-------7p6---||--4--4---4---4-4-4---4-4-----7p6-4--4---4---4-4-4---4-4-4-------|
|-------------------------------------------------------------||-------------------------------------------------------------||---9--------5----4--2----7----9------9-----5---4-2----7---9--||---9--------5----4--2----7----9------9-----5---4-2----7---9--||---7--------3----2--0----5----7------7-----3---2-0----5---7--||-------------------------------------------------------------|
|---------------------------------||---------------------------------||--7--6--5---5----5----5----------||--7--6--5---3-4--3-5--3-7--------||--5--4--3-----2----3----5--------||---------------------------------|
_________________________________________________________________________________ Ok, This is the whole album. I'm going to tab more Sabbath albums. Here are The albums i got transcribed by now: - Marilyn Manson - Antichrist Superstar - White Zombie - La Sexorcisto - White Zombie - Astro-Creep: 2000 See Ya!
Tap to rate this tab
 
# A B C D E F G H I J K L M N O P Q R S T U V W X Y Z