Black Veil Brides – The Gunsling tab

Si necesitan alguna otra cancion escribanme a mi correo:

the_darosh_segper@hotmail.com

INTROPueden repetir algunas partes las veces que sean nesesariase|--------------------------------------------------------|b|-2h3------3----2----------0------2----------------------|g|-----2------------2---------0---------3-----------------|d|-0-----0----0-------2---------0----0-----4--------------|a|---------------0------0--------------------4------------|E|--------------------------3-----------2------2----------|
|----------2----------------------------------------------||-2h3-----------2----------0-------2----------------------||-----2------------2----------0---------3-----------------||-0-----0----0-------2----------0----0-----4--------------||---------------0------0---------------------4------------||--------------------------3------------2------2----------|
|----------2---------2------------------------------------||-2h3-----------3---------3----5----2---------------------||-----2-----------2---------2----------2------------------||-0-----0----0---------0---------0-------2----------------||-----------------------------------0------0--------------||---------------------------------------------------------|
|---------------------------------------------------------||-2h3------3----2----------0------2-----------------------||-----2------------2---------0---------3------------------||-0-----0----0-------2---------0----0-----4---------------||---------------0------0--------------------4-------------||--------------------------3-----------2------2-----------|
|-------------------------------||-2h3-------3----3-3-3----------||------2------------------------||-0------0----0--0-0-0----------||-------------------------------||-------------------------------|FIN DEL INTRO
GUITARRA 1 (X2)|-------------------------------------------------------||-------------------------------------------------------||-------------------------------------------------------||------------------------7-5---------2-4----------------||-5-55-77-88-1010-88-77--7-5--55-77--2-4--8-7-----------||-5----------------------5-3---------0-2----------------|
|-------------------------------------------------------||-------------------------------------------------------||-------------------------------------------------------||------------------------7-5-2-4------------------------||-5-55-77-88-1010-88-77--7-5-2-4------\7----------------||-5----------------------5-3-0-2------\7----------------|
GUITARRA 2 (X2)|--------------------------------------------------------||--------------------------------------------------------||--------------------------------------------------------||----------------------------7-5---------2-4-------------||-7--------------------------7-5---------2-4-------------||-7-77-99-1010-1212-1010-99--5-3--77-99--0-2--10-9-------|
|--------------------------------------------------------||--------------------------------------------------------||--------------------------------------------------------||----------------------------7-5-2-4---------------------||-7--------------------------7-5-2-4----\7---------------||-7-77-99-1010-1212-1010-99--5-3-0-2----\7---------------|
(X3)|--------------------------------------------------------------------||--------------------------------------------------------------------||--------------------------------------------------------------------||-------------------------------------------2-2s4-2------------------|GUITARRA 1|-------------------------------------------4-4s5-4------------------|GUITARRA 2|-70-70-70-70-70-70-70-70--5-3-22-3-2-5-3-22-------------------------|GUITARRA 1 Y 2 |-----------------| PM
GUITARRA 1 Y 2 (X1)|--------------------------------------------------------------------||--------------------------------------------------------------------||--------------------------------------------------------------------||--------------------------------------------5-2-4-------------------||--------------------------------------------5-2-4-------------------||-70-70-70-70-70-70-70-70--5-3-22-3-2-5-3-22-3-0-2-------------------| |-----------------| PM
1ER Solo (GUITARRA 1) (X2)|--------------------------------------------------------------------||-12--15-14-12-10--15-14-12-1012--15-14-1514-17----------------------||--------------------------------------------------------------------||--------------------------------------------------------------------||-14----------------------------------------------17-16-12-----------||--------------------------------------------------------------------|
Durante el solo (GUITARRA 2) (X2)|--------------------------------------------------||----------------||--------------------------------------------------||----------------||-4-------------------4----------------------------||----------------||-4---------7---------4---------7------------------||----------------||-2--5-7-5--7--5-4-0--2--5-7-5--7--5-4-0-----------||-----4---4h5p4--||-----------5-------------------5------------------||-0-0---0--------| |--| |-| PM PM
|--------------------------------------------||--------------------------------------------||--------------------------------------------||--------------------------4-5-7--4-7-5------|GUITARRA 1|--------------------------6-7-9--6-9-7------|GUITARRA 2|-70-70-70-70-70-70-70-70--------------------|GUITARRA 1 Y 2
|------------------------------------------------------------------------------||------------------------------------------------------------------------------||------------------------------------------------------------------------------||-------------------------44444444-55555555-77777777-44444444-77777777-55555555|GUITARRA 1|-------------------------66666666-77777777-99999999-66666666-99999999-77777777|GUITARRA 2|-70-70-70-70-70-70-70-70------------------------------------------------------|GUITARRA 1 Y 2
|--------------------------------------------||--------------------------------------------||--------------------------------------------||--------------------------4-5-7--4-7-5------|GUITARRA 1|--------------------------6-7-9--6-9-7------|GUITARRA 2|-70-70-70-70-70-70-70-70--------------------|GUITARRA 1 Y 2
GUITARRA 1 |--------------------------------------------||--------------------------------------------||--------------------------------------------||--------------------------5-2-4-------------||--------------------------5-2-4-------------||-70-70-70-70-70-70-70-70--3-0-2-------------|
GUITARRA 2|-----------------||-14h15p14---12---||-----------------||-----------------||-----------------||-----------------|
GUITARRA 1 *CORO*|--------------------------------------------------------------------||--------------------------------------------------------------------||-4-----7------4------------------7-------44-44-44-------------------||-4--5--7--7---4--5---------------7--7----44-44-44-------------------||-2--5--5--7---2--5----4-5-4---4--5--7----22-22-22-------------------||----3-----5------3--7-------7-------5-------------------------------|
GUITARRA 2 *Despues del Coro*|---------------------------------------------||-10h12p0-8h10p0-7h8p0-5h7p0-3h5p0-2h3p2------||---------------------------------------------||---------------------------------------------||---------------------------------------------||---------------------------------------------|
(GUITARRA 1)Se repite el primer solo (X2)|--------------------------------------------------------------------||-12--15-14-12-10--15-14-12-1012--15-14-1514-17----------------------||--------------------------------------------------------------------||--------------------------------------------------------------------||-14----------------------------------------------17-16-12-----------||--------------------------------------------------------------------|
Durante el solo (GUITARRA 2) (X2)|--------------------------------------------------||----------------||--------------------------------------------------||----------------||-4-------------------4----------------------------||----------------||-4---------7---------4---------7------------------||----------------||-2--5-7-5--7--5-4-0--2--5-7-5--7--5-4-0-----------||-----4---4h5p4--||-----------5-------------------5------------------||-0-0---0--------| |--| |-| PM PM
|--------------------------------------------||--------------------------------------------||--------------------------------------------||--------------------------4-5-7--4-7-5------|GUITARRA 1|--------------------------6-7-9--6-9-7------|GUITARRA 2|-70-70-70-70-70-70-70-70--------------------|GUITARRA 1 Y 2
|------------------------------------------------------------------------------||------------------------------------------------------------------------------||------------------------------------------------------------------------------||-------------------------44444444-55555555-77777777-44444444-77777777-55555555|GUITARRA 1|-------------------------66666666-77777777-99999999-66666666-99999999-77777777|GUITARRA 2|-70-70-70-70-70-70-70-70------------------------------------------------------|GUITARRA 1 Y 2
|--------------------------------------------||--------------------------------------------||--------------------------------------------||--------------------------4-5-7--4-7-5------|GUITARRA 1|--------------------------6-7-9--6-9-7------|GUITARRA 2|-70-70-70-70-70-70-70-70--------------------|GUITARRA 1 Y 2
GUITARRA 1 Y 2 |--------------------------------------------||--------------------------------------------||--------------------------------------------||--------------------------5-2-4-------------||--------------------------5-2-4-------------||-70-70-70-70-70-70-70-70--3-0-2-------------|
GUITARRA 2|------------------------------------------------------------------------------------------||---------8---8-7---5h7p5----------8---8-7---5h7p5----------8---8-7---5h7p5----------s14-12||------44---4-----4-------------44---4-----4-------------44---4-----4----------------------||-4-5----------------------4-5----------------------4-5-----------------------4-5----------||-5-7----------------------5-7----------------------5-7-----------------------5-7----------||------------------------------------------------------------------------------------------| |-| |-| |-| |-| |-| |-| |-| |-| |-| PM PM PM PM PM PM PM PM PM
GUITARRA 1 *CORO*|------------------------------------------||------------------------------------------||-4-----7------4------------------7--------||-4--5--7--7---4--5---------------7--7-----||-2--5--5--7---2--5----4-5-4---4--5--7-----||----3-----5------3--7-------7-------5-----|
|---------------------------------------------------------||---------------------------------------------------------||-44444444----------77777777----------44444444444444444---||-44444444-55555555-77777777-77777777-44444444444444444---||-22222222-55555555-55555555-77777777-22222222222222222---||----------33333333----------55555555---------------------| |-| PM
GUITARRA 1 *Despues del coro*|------------------------------------------------------------------------||------------------------------------------------------------------------||-4444-2222------------s9-7-6-9-11---4444-2222-----------s9-7-6-9-11-----||-----------5555-4444--------------------------5555-4444-----------------||------------------------------------------------------------------------||------------------------------------------------------------------------|
|---------------------------------------------------------------||---------------------------------------------------------------||-4444-2222------------s9-7-6-9-11---4444-2222-----------s9-----||-----------5555-4444--------------------------5555-4444--------||---------------------------------------------------------------||---------------------------------------------------------------|
GUITARRA 2 *Despues del coro*|-------------------------------------------------------------------------||-------------------------------------------------------------------------||-----------------------s9-7-6-9-11-----------------------s9-7-6-9-11-----||-5555-4444--------------------------5555-4444----------------------------||-----------7777-5555--------------------------7777-5555------------------||-------------------------------------------------------------------------|
|----------------------------------------------------------------||----------------------------------------------------------------||-----------------------s9-7-6-9-11-----------------------s9-----||-5555-4444--------------------------5555-4444-------------------||-----------7777-5555--------------------------7777-5555---------||----------------------------------------------------------------|
2DO Solo (GUITARRA 1)|-14-------------------------------------------------||----15-14-15--(17)--17-18-15--17-18-20--17-18-15----||----------------------------------------------------||----------------------------------------------------||----------------------------------------------------||----------------------------------------------------|
|-------14-----------------------------------------------------------||-17-15----15-14-15--(17)--17-18-15--17-18-20--17-18-15--17-15-14----||--------------------------------------------------------------------||--------------------------------------------------------------------||--------------------------------------------------------------------||--------------------------------------------------------------------|
|-14---------------------------------------------------------||----15-14-15-17...-1818-15...-17.-18.-20...-17.-18.-15..----||------------------------------------------------------------||------------------------------------------------------------||------------------------------------------------------------||------------------------------------------------------------|
|--------14.------------------------------------------------------------------------||-17.-15.----15.-14.-15.-17...-1818-15...-17.-18.-20...-17.-18.-15..-17.-15.-14~----||-----------------------------------------------------------------------------------||-----------------------------------------------------------------------------------||-----------------------------------------------------------------------------------||-----------------------------------------------------------------------------------|
GUITARRA 2 Durante el solo|--------------------------------------------------------||--------------------------------------------------------||-4-----7------4-----7------4-----7------4-----7---------||-4--5--7--7---4--5--7--7---4--5--7--7---4--5--7--7------||-2--5--5--7---2--5--5--7---2--5--5--7---2--5--5--7------||----3-----5------3-----5------3-----5------3-----5------|
GUITARRA 2 *Despues del solo*|------------------------------------------------------------------------------------------||---------8---8-7---5h7p5----------8---8-7---5h7p5----------8---8-7---5h7p5----------s14-12||------44---4-----4-------------44---4-----4-------------44---4-----4----------------------||-4-5----------------------4-5----------------------4-5-----------------------4-5----------||-5-7----------------------5-7----------------------5-7-----------------------5-7----------||------------------------------------------------------------------------------------------| |-| |-| |-| |-| |-| |-| |-| |-| |-| PM PM PM PM PM PM PM PM PM
GUITARRA 1 *CORO*|------------------------------------------||------------------------------------------||-4-----7------4------------------7--------||-4--5--7--7---4--5---------------7--7-----||-2--5--5--7---2--5----4-5-4---4--5--7-----||----3-----5------3--7-------7-------5-----|
|-----------------------------------------------------------------------------------------||-----------------------------------------------------------------------------------------||-44444444----------77777777----------44444444----------77777777-------------44-44-44-----||-44444444-55555555-77777777-77777777-44444444-55555555-77777777-77777777----44-44-44-----||-22222222-55555555-55555555-77777777-22222222-55555555-55555555-77777777----22-22-22-----||----------33333333----------55555555----------33333333----------55555555-----------------|
Please rate this tab:
x1.0