Black Veil Brides - Heavens Calling tab version 3

Tuning Drop C#

for timing:http://www.youtube.com/watch?v=ACdope2vMFc

. = Palmmute
h=hammer on
p=pull off
T=Tapping
b=Bending
tr=Tremolo Picking

Intro Part1

|----------------------------------------------------||----------------------------------------------------||----------------------------------------------------||----------------------------------------------------||-----5-8-5--------------------5-8-5-----------------||-0-7-------7-0-7---------0-8--------8-0-8-----------|
|----------------------------------------------------||----------------------------------------------------||------------------------------6-9-6-----------------||----------------------------5-------5---5-----------||-----5-8-5----------------7-----------7-------------||-2-5-------5-2-5------------------------------------| *************** . . . . .
|----------------------------------------------------||----------------------------------------------------||--------9-12-9--------------------------------------||-----11--------11----11---------------- ------------||--10--------------10--------------------------------||----------------------------------------------------| . . . . .
**************** instead of ****************
|----------------------------------------------------||----------------------------------------------------||------------------------------6-9-6-----------------||----------------------------5-------5---5-----------||-----5-8-5----------------7-----------7-------------||-2-5-------5-2-5------------------------------------| . . . . .
you can play:|----------------------------------------------------||--------------------------------5-------------------||------------------------------6---6-----------------||-----0-3-0------------------5-------5---5-----------||--------------------------7-----------7-------------||-2-5-------5-2-5------------------------------------| . . . . .
Intro Part 2
|----------------------------------------------------||----------------------------------------------------||----------------------------------------------------||----------------------------------------------------||-----5-8-5--------------------5-8-5-----------------||-0-7-------7-0-7---------0-8--------8-0-8-----------|
|----------------------------------------------------||-------------------5---3-5-3---2--0---3-2-0---------||---------------------------------------------3------||----------------------------------------------------||-----5-8-5------------------------------------------||-2-5-------5-2-5------------------------------------| h p h
|--8-6-5---------------------------------------------||----------8-6-5-------------------------------------||------------------9-7-5-----------------------------|all pulloffs|------------------------8-7-5-----------------------||----------------------------------------------------||----------------------------------------------------|
Main Riff/Melody|----------------------------------------------------||--------10-11--10-11-----10-11-10---15-14-15--------||--10--12-------------12-----------------------------||----------------------------------------------------||----------------------------------------------------||----------------------------------------------------|
|-12-13-18--17-18-15--17-18----17-15-13--12-13-15--17-15-13--12-13-15--13~-||--------------------------------------------------------------------------||--------------------------------------------------------------------------||--------------------------------------------------------------------------||--------------------------------------------------------------------------||--------------------------------------------------------------------------| T p p p h h T p p p h h
Verse x2|--------------------------------------------------------------------------||--------------------------------------------------------------------------||----------------------------------3---------------------------------------||-0--------------------------------3---------------------------------------||-0--------------------------------1-1-1-1-1-1-1-1-1-1-1-------------------||-0-0-0-0-0-0-0-0-0-0-0----------------------------------------------------| . . . . . . . . . . . . . . . . . . . .
|-----------------------------------------------------------------||-----------------------------------------------------------------||-----------------------------------------------------------------||-5---------------------------------------------------------------||-5---------------------5-----------4-----------------------------||-5-5-5-5-7-5-8-7---3-3---3-----2-2---2---------------------------| . . . . . . . . . .
|--------------------------------------------------------------------------||--------------------------------------------------------------------------||----------------------------------3---------------------------------------||-0--------------------------------3---------------------------------------||-0--------------------------------1-1-1-1-1-1-1-1-1-1-1-------------------||-0-0-0-0-0-0-0-0-0-0-0----------------------------------------------------| . . . . . . . . . . . . . . . . . . . .
|--------5-6--5-6-5-----------------------------------------------||----6-8-------------8--5-----------------------------------------||-----------------------------------------------------------------||--5--------------------------------------------------------------||--5--------------------------------------------------------------||--5--------------------------------------------------------------| h p
Pre Chorus
|----------------------------------------------------||----------------------------------------------------||----------------------------------------------------||----------------------------------------------------||-----5-8-5--------------------5-8-5-----------------||-0-7-------7-0-7---------0-8--------8-0-8-----------|
|------------------------------------------------------------------||-----------------------------------------5--3-5-3--2-0--3-2-0-----||---------------------------------------------------------------3--||------------------------------------------------------------------||-----5-8-5-----------------5-8-5---5-8----------------------------||-2-5-------5-2-5-----2-6-2-------6--------------------------------| h p
Chorus
|-------------------------------------------------------------------------||-------------------------------------------------------------------------||-----------2---0-2----------3---0-3------------------------------2-0-----||----------------------------------------------5----------------------3-5-||--------------------------------------------------4-5---0-00-0-0---------||-0-00-0-0----0-----1-11-1-1---1------2-22-2-2---2------------------------|x2 . .. . . . . .. . . . . .. . . . . .. . .
|------------------------------------------------------------------------||------------------------------------------------------------------------||----------10---9-10----------10---9-10---------9---7-6-----------9-7-6-7||-0-00-0-0----0-------8-88-88----8------------------------7-77-7-7-------||---------------------------------------7-77-77---7----------------------||------------------------------------------------------------------------| . .. . . . . .. .. . . .. .. . . .. . .
Main Riff/Melody Verse Chorus Bridge
|-------------------------------------------------------------------------||-------------------------------------------------------------------------||-------------------------------------------------------------------------||-----3-2-3---------------------------------------------------------------||-------------------------------------------------------------------------||--000-------3-2-3--7-6-7---6--66666666666666666-2--222222222222222-------|
|-----------------------------------------------------------------------||-----------------------------------------------------------------------||-----------------------------------------------------------------------||-----3-2-3----------------6------------------7-------------------------||--------------------------6--5555-7777-8888--7-10101010-8888-7777------||-000-------3-2-3--7-6-7---6------------------7-------------------------|
|-------------------------------------------------------------------||-------------------------------------------------------------------||-------------------------------------------------------------------||-----3-2-3---------------------------------------------------------||-------------------------------------------------------------------||-000-------3-2-3--7-6-7---6--66666666666666666-2--222222222222222--|
|---------------------------------------------------------------------------||---------------------------------------------------------------------------||---------------------------------------------------------------------------||-----3-2----------------6------------------------7-------------------------||------------------------6-8888-10101010-12121212-7 13131313-121212-10101010||-000------3-2-3--7-6-7--6------------------------7-------------------------|
|-----------------------------------------------------------------------------||-----------------------------------------------------------------------------||-----------------------------------------------------------------------------||---3-2-3-------------3--2--2-0-2--------------2-0--7-6-7------8-7-8----------||---------5-4-5-------------------4-2-4------------------8-7-8-------10-9-10--||-0-------------7-6-7---------------------7-5-7-------------------------------|
|-----------------------------------------------------------||-----------------------------------------------------------||------------------7-6767676767676767676767676767-----------||--10-8-7---------------------------------------------------||---------10-8-7-8------------------------------------------||-----------------------------------------------------------|
SoloTremolo picking|-----------------------------------------------------------||-----------------------------------------------------------||-7-6-9-7-10-9-12-10-14-12-15-14-15-17-19--21~--------------||-----------------------------------------------------------||-----------------------------------------------------------||-----------------------------------------------------------|
|--------15-12-----12-10-11-10-11-10-11-10---------------------------||-----14------------------------------------12-10-11-10-11-10-11-10--||--14---------12-----------------------------------------------------||--------------------------------------------------------------------||--------------------------------------------------------------------||--------------------------------------------------------------------| T T
|--10/------------------------------------------------------------------||------10\----------11-10-11-10-11-10-11-10-12-11-12-11-12-11-12-11-----||----------10/----------------------------------------------------------||--------------10\------------------------------------------------------||-----------------------------------------------------------------------||-----------------------------------------------------------------------| T T T T
|-------------------------------------------------16-15-16-15-16-15-16-15--||-12-13-12-13-12-13-12-13-14-13-14-13-15-14-16-15--------------------------||--------------------------------------------------------------------------||--------------------------------------------------------------------------||--------------------------------------------------------------------------||--------------------------------------------------------------------------| T T T T T
|--17tr---18-17-15-------------------------------------------------------||------------------18-17-15---------------------15----15-17-15-14-15-17~-||---------------------------15~--------16----16----16--------------------||-----------------------------------15----15-----------------------------||--------------------------------17--------------------------------------||------------------------------------------------------------------------|
|-13-12-10--12-10-8-------------------------------------------------------||-------------------15-13-11-13-11-10--12-10-8--10-8-6--------------------||------------------------------------------------------12-10-----10-------||------------------------------------------------------------12-----12-10-||-------------------------------------------------------------------------||-------------------------------------------------------------------------|
|-------------------------------------------------------------------------||-------11-14-11--------------14-17-14--------------17-20-17--------------||----12----------12--------15----------15--------18---------18------------||-11----------------11--14----------------14--17---------------17---------||-------------------------------------------------------------------------||-------------------------------------------------------------------------|
|-------15-18-15---------22~--------------------------------||----17----------17-----------------------------------------||-15----------------15--------------------------------------||-----------------------------------------------------------||-----------------------------------------------------------||-----------------------------------------------------------|
Chorus Outro
|-----------------------------------------------------------||-----------------------------------------------------------||-----------------------------------------------------------||----------------------0------------------------------------||-7-8--1-0-----0-------0------------------------------------||-7-8------5-3---5-3-2-0------------------------------------| .. . . .
Tap to rate this tab
 
# A B C D E F G H I J K L M N O P Q R S T U V W X Y Z