Wretched And Divine tab with lyrics by Black Veil Brides - Easy chords and tabs for guitar

Black Veil Brides – Wretched And Divine tab

This tab is a bit long, sorry!

If there are any problems please message me on tumblr or twitter.
Tumblr: fuckyeah-pierce-the-veil.tumblr.com
Twitter: @fuckyeah_ptv


Intro:

|--------------------|------------------------|----------------------------||--------------------|------------------------|----------------------------||----11--------13----|----14---16---13---9----|--11---------13/14---13\9---||--------------------|------------------------|----------------------------||----9---------11----|----12---14---11---7----|--9----------11/12---11\7---||--------------------|------------------------|----------------------------|
Then|---------------------------------------------||-----14-12-14-10-14--14--14--14-10-14-12-14--||-------------------13--11--13----------------||---------------------------------------------||---------------------------------------------|
|---------------------------------------------------------------||-----14--12--14--10--12----------------------------------------||------------------------13--14--11--13--9--11--14--13--11--9---||---------------------------------------------------------------||---------------------------------------------------------------||---------------------------------------------------------------|
|----------------------------------------------------------------||-----14--12--14--10--14-----14-----14------14--10--14--12--14---||------------------------13-----11------13-----------------------||----------------------------------------------------------------||----------------------------------------------------------------||----------------------------------------------------------------|
Verse
|----------------------------------------------------------------||-----14--12--14--10--12-----------------------------------------||------------------------13--14--11--13--9--11--14--13--11--9----||----------------------------------------------------------------||----------------------------------------------------------------||----------------------------------------------------------------|
|-----------------------------------------------------||-----------------------------------------------------||-----------------------------------------------------||---------------4--------4---------------4--------4---||---------------4--------4---------------4--------4---||--4-4-4--4--4--4--4--4--4-----4-4-4--4--4--4--4--4---|
|-------------------------------------------------------||-------------------------------------------------------||-----------------------------------------4--6--4-------||---------------7--------2-------------------------6----||---------------7--------2------------------------------||--7-7-7--7--7--7--7--7--2------2-2-2--2----------------|
Pre-Chorus
|----------------------------------------------------------||--10---------10--12--10--12--14--12-----------------------||----11----11------------------------13------------13--14--||-------12------------------------------14--11--14---------||----------------------------------------------------------||----------------------------------------------------------|
|----------------------------13--9-----------9--10--9--||--14--10---------10--14--10-------12--9--12-----------||---------11----11-------------------------------------||------------11----------------------------------------||------------------------------------------------------||------------------------------------------------------|
|--17--14-----------------------------------16--17--16--14--||---------15------------------------14--15------------------||------------14------------------14-------------------------||---------------14--16--------16----------------------------||----------------------16--17-------------------------------||-----------------------------------------------------------|
|--16--13-----------------------------13--16--17--16--14--||---------14-----------------------14---------------------||------------13-----------------13------------------------||--------------11--12--------15---------------------------||---------------------14--16------------------------------||---------------------------------------------------------|
|-------------||-------------||-----6-------||-------------||-----4-------||-------------|
Chorus
|------------------------------------------------------||------------------------------------------------------||------------------------------------------------------||------4--4--4--4--4--4--4--4--4--4--4--4--4--4--4--4--||------4--4--4--4--4--4--4--4--4--4--4--4--4--4--4--4--||------4--4--4--4--4--4--4--4--4--4--4--4--4--4--4--4--|
|-------------------------------------------------||-------------------------------------------------||---7--7--7--7--7--7--7--7--7--7--7--7--7--7--7--7||---7--7--7--7--7--7--7--7--7--7--7--7--7--7--7--7||---5--5--5--5--5--5--5--5--5--5--5--5--5--5--5--5||-------------------------------------------------|
|--------------------------------------------------||--------------------------------------------------||--------------------------------------------------||--7--7--7--7--7--7--7--7--7--7--7--7--7--7--7--7--||--7--7--7--7--7--7--7--7--7--7--7--7--7--7--7--7--||--7--7--7--7--7--7--7--7--7--7--7--7--7--7--7--7--|
|-----------------------||---12----10--9---------||-----------------9-----||-----------------------||-----------------------||-----------------------|
|--------------------------------------------------||--------------------------------------------------||--------------------------------------------------||--4--4--4--4--4--4--4--4--4--4--4--4--4--4--4--4--||--4--4--4--4--4--4--4--4--4--4--4--4--4--4--4--4--||--4--4--4--4--4--4--4--4--4--4--4--4--4--4--4--4--|
|---------------------------------------------------||---------------------------------------------------||--7--7--7--7--7--7--7--7--7--7--7--7--7--7--7--7---||--7--7--7--7--7--7--7--7--7--7--7--7--7--7--7--7---||--5--5--5--5--5--5--5--5--5--5--5--5--5--5--5--5---||---------------------------------------------------|
|--------------------------------------------------||--------------------------------------------------||--------------------------------------------------||--7--7--7--7--7--7--7--7--7--7--7--7--7--7--7--7--||--7--7--7--7--7--7--7--7--7--7--7--7--7--7--7--7--||--7--7--7--7--7--7--7--7--7--7--7--7--7--7--7--7--|
|----------------------||--12-----10---9-------||----------------------||----------------------||----------------------||----------------------|
|-------------------------------------------||-------------------------------------------||-----14---13---11-------11-----------------||-------------------14--------14--12--11----||-------------------------------------------||-------------------------------------------|
|----------------------------------------------------------|||----------------------------------------------------------|||-----14---13---11---16-14-13-----------18-16-14-----------|||-----------------------------16-14-12-----------18-16-14--|||----------------------------------------------------------|||----------------------------------------------------------||
Verse II
|------|------|------|-----------------------------------||------|------|------|-----------------------------------||------|------|------|-----------------------------------||------|------|------|-----------------------------------||------|------|------|-----------------------------------||------|------|------|------------2-2-2--2--4--6--4--2---|
|-----------------------------------------------------||-----------------------------------------------------||-----------------------------------------------------||---------------4--------4---------------4--------4---||---------------4--------4---------------4--------4---||--4-4-4--4--4--4--4--4--4-----4-4-4--4--4--4--4--4---|
|-----------------------------------------------------||-----------------------------------------------------||----------------------------------------4--6--4------||---------------0--------2------------------------6---||---------------0--------2----------------------------||--0-0-0--0--0--0--0--0--2-----2-2-2--2---------------|
|-----------------------------------------------------||-----------------------------------------------------||-----------------------------------------------------||---------------4--------4---------------4--------4---||---------------4--------4---------------4--------4---||--4-4-4--4--4--4--4--4--4-----4-4-4--4--4--4--4--4---|
|-----------------------------------------------------||-----------------------------------------------------||----------------------------------------4--6--4------||---------------7--------2------------------------6---||---------------7--------2----------------------------||--7-7-7--7--7--7--7--7--2-----2-2-2--2---------------|
Pre-Chorus
|---------------------------------------------------------------||--10----------10--12--10--12--14--12---------------------------||-----11----11--------------------------13--------------13--14--||--------12---------------------------------14--11--14----------||---------------------------------------------------------------||---------------------------------------------------------------|
|----------------------------------13--9-------------9--10--9---||--14--10--------------10--14--10---------12--9--12-------------||----------11------11-------------------------------------------||--------------11-----------------------------------------------||---------------------------------------------------------------||---------------------------------------------------------------|
|--17-14------------------------16-17-16-14--||-------15-----------------14-15-------------||---------14-------------14------------------||-----------14-16------16--------------------||----------------16-17-----------------------||--------------------------------------------|
|--16-13----------------16---||-------14-------------------||---------13-----------------||-----------11-12------------||-----------------14-16------||----------------------------|
Chorus
|------------------------------------------------------||------------------------------------------------------||------------------------------------------------------||------4--4--4--4--4--4--4--4--4--4--4--4--4--4--4--4--||------4--4--4--4--4--4--4--4--4--4--4--4--4--4--4--4--||------4--4--4--4--4--4--4--4--4--4--4--4--4--4--4--4--|
|-------------------------------------------------||-------------------------------------------------||---7--7--7--7--7--7--7--7--7--7--7--7--7--7--7--7||---7--7--7--7--7--7--7--7--7--7--7--7--7--7--7--7||---5--5--5--5--5--5--5--5--5--5--5--5--5--5--5--5||-------------------------------------------------|
|--------------------------------------------------||--------------------------------------------------||--------------------------------------------------||--7--7--7--7--7--7--7--7--7--7--7--7--7--7--7--7--||--7--7--7--7--7--7--7--7--7--7--7--7--7--7--7--7--||--7--7--7--7--7--7--7--7--7--7--7--7--7--7--7--7--|
|------------------------------------------------------||------------------------------------------------------||------------------------------------------------------||------4--4--4--4--4--4--4--4--4--4--4--4--4--4--4--4--||------4--4--4--4--4--4--4--4--4--4--4--4--4--4--4--4--||------4--4--4--4--4--4--4--4--4--4--4--4--4--4--4--4--|
|-------------------------------------------------||-------------------------------------------------||---7--7--7--7--7--7--7--7--7--7--7--7--7--7--7--7||---7--7--7--7--7--7--7--7--7--7--7--7--7--7--7--7||---5--5--5--5--5--5--5--5--5--5--5--5--5--5--5--5||-------------------------------------------------|
|--------------------------------------------------||--------------------------------------------------||--------------------------------------------------||--7--7--7--7--7--7--7--7--7--7--7--7--7--7--7--7--||--7--7--7--7--7--7--7--7--7--7--7--7--7--7--7--7--||--7--7--7--7--7--7--7--7--7--7--7--7--7--7--7--7--|
|----------------------|||--/12---10--9---------|||---------------9------|||----------------------|||----------------------|||----------------------||
Break (break down, palm mute through-out this whole part.)
|----------------------------------------------------||----------------------------------------------------||----------------------------------------------------||----------------------------------------------------||--4--7--4--2--4--7--4--2--4--7--4--2----------------||--4--7--4--2--4--7--4--2--4--7--4--2--2-2-2--2-2-2--|
|---------------------------------------------||---------------------------------------------||---------------------------------------------||---------------------------------------------||--4--7--4--2--4--7--4--2--4--7--4--2--0--3---||--4--7--4--2--4--7--4--2--4--7--4--2--0--3---|
|----------------------------------||----------------------------------||----------------------------------||----------------------------------||----------------------------------||--4-4-4-4-4-4-4-4-6-6-6-6-7-7-7-7-|
|----------------------------------||----------------------------------||----------------------------------||----------------------------------||----------------------------------||--3-3-3-3-3-3-3-3-6-6-6-6-7-7-7-7-|
|-------------------------------------------------||-------------------------------------------------||-------------------------------------------------||-------------------------------------------------||-------------------------------------------------||--2--2--2--2--2--2--2--2--6--6--6--6--7--7--7--7-|
|-------------------------------------------------||-------------------------------------------------||-------------------------------------------------||-------------------------------------------------||-------------------------------------------------||--2--2--2--2--2--2--2--2--6--6--6--6--7--7--7--7-|
|------------------||------------------||--11----10---6----||------------------||--9-----8----4----||------------------|
|-----------------------------||-----------------------------||-----------------------------||-----------------------------||-----------------------------||--2--2--2-2-2--2--2-2-2------|
Solo
|--17-----17-17-17\12-12-12-12/16-16-16--||----------------------------------------||----------------------------------------||----------------------------------------||----------------------------------------||----------------------------------------|
|--16\10-10-10-10/12-12-12-12/14-14-14-14/16-16-16/21--||------------------------------------------------------||------------------------------------------------------||------------------------------------------------------||------------------------------------------------------||------------------------------------------------------|
Then|-----16-21-16----16-----------------||--------------17----17--------------||-----------------------19--18--19---||------------------------------------||------------------------------------||------------------------------------|
Tapping!
|-------------------------------------------------||--17t14t10t14t17t14t17t14t10t14t17t14t17t14t10t14| (it started|-------------------------------------------------| going off|-------------------------------------------------| the page.)|-------------------------------------------------||-------------------------------------------------|
(continued)|-----------------------------------------------||-15t12t9t12t15t12t15t12t9t12t15t12t15t12t9t12--||-----------------------------------------------||-----------------------------------------------||-----------------------------------------------||-----------------------------------------------|
|------------------17-16-14------------------------17-16-14----------||----------14-15-17--------17-15-14--------14-15-17--------17-15-14--||--11-13-14------------------------11-13-14--------------------------||--------------------------------------------------------------------||--------------------------------------------------------------------||--------------------------------------------------------------------|
|------------------14-12-10------------------------14-12-10----------||---------10-12-14----------14-12-10-------10-12-14--------14-12-10--||--9-11-13--------------------------9-11-13--------------------------||--------------------------------------------------------------------||--------------------------------------------------------------------||--------------------------------------------------------------------|
(strum fast here)|--------------------------------------||-------------------14(x3)--17(x3)-----||--14(x3)---16(x3)---------------------||--------------------------------------||--------------------------------------||--------------------------------------|
|-16-16-15-14-12-14-15-16-15-14-12-14-15-16-16-14-12--------------14||---------------------------------------------------15----------15--||-----------------------------------------------------14------14----||-------------------------------------------------------16--16------||---------------------------------------------------------17--------||-------------------------------------------------------------------|
(continued)|-16-17-18-19-|||-------------|||-------------|||-------------|||-------------|||-------------||
Final Chorus
|--20b------||-----------||-----------||-----------||-----------||-----------|
|-------------------------------------------------||-------------------------------------------------||---7--7--7--7--7--7--7--7--7--7--7--7--7--7--7--7||---7--7--7--7--7--7--7--7--7--7--7--7--7--7--7--7||---5--5--5--5--5--5--5--5--5--5--5--5--5--5--5--5||-------------------------------------------------|
|--------------------------------------------------||--------------------------------------------------||--------------------------------------------------||--7--7--7--7--7--7--7--7--7--7--7--7--7--7--7--7--||--7--7--7--7--7--7--7--7--7--7--7--7--7--7--7--7--||--7--7--7--7--7--7--7--7--7--7--7--7--7--7--7--7--|
|--------------------||--/12---10--9-------||----------------9---||--------------------||--------------------||--------------------|
|------------------------------------------------------||------------------------------------------------------||------------------------------------------------------||------4--4--4--4--4--4--4--4--4--4--4--4--4--4--4--4--||------4--4--4--4--4--4--4--4--4--4--4--4--4--4--4--4--||------4--4--4--4--4--4--4--4--4--4--4--4--4--4--4--4--|
|-------------------------------------------------||---7--7--7--7--7--7--7--7--7--7--7--7--7--7--7--7||---7--7--7--7--7--7--7--7--7--7--7--7--7--7--7--7||---5--5--5--5--5--5--5--5--5--5--5--5--5--5--5--5||-------------------------------------------------|
|--------------------------------------------------||--------------------------------------------------||--------------------------------------------------||--7--7--7--7--7--7--7--7--7--7--7--7--7--7--7--7--||--7--7--7--7--7--7--7--7--7--7--7--7--7--7--7--7--||--7--7--7--7--7--7--7--7--7--7--7--7--7--7--7--7--|
|--------------------||--/12---10--9-------||----------------9---||--------------------||--------------------||--------------------|
Outro (palm mute through-out this whole part.)
|----------------------------------------------------||----------------------------------------------------||----------------------------------------------------||----------------------------------------------------||--4--7--4--2--4--7--4--2--4--7--4--2----------------||--4--7--4--2--4--7--4--2--4--7--4--2--2-2-2--2-2-2--|
|---------------------------------------------||---------------------------------------------||---------------------------------------------||---------------------------------------------||--4--7--4--2--4--7--4--2--4--7--4--2--0--3---||--4--7--4--2--4--7--4--2--4--7--4--2--0--3---|
|----------------------------------------------------||----------------------------------------------------||----------------------------------------------------||----------------------------------------------------||--4--7--4--2--4--7--4--2--4--7--4--2----------------||--4--7--4--2--4--7--4--2--4--7--4--2--2-2-2--2-2-2--|
|-------------------------------|||-------------------------------|||-------------------------------|||-------------------------------|||--4-7-4-2-4-7-4-2-4-7-4-2-0-3--|||--4-7-4-2-4-7-4-2-4-7-4-2-0-3--||
Please rate this tab:
x1.0