Blackfoot - Highway Song tab

Blackfoot - Highway Song
tabbed by... Chase Grimes
who's email is... bigbucksgrimes@yahoo.com
with the help of... "Amazing Slow Downer" tabbing software
and... "Transcribe!" tabbing software
downloaded of off... http://www.downloads.com/

Time taken to transcribe...  approx. 10 hours ...so far that is, I will finish as soon as I can.




Guitar 1 - E a d g b e
Guitar 2 - E a d g b e
Guitar 3 - E a d g b e

Transcription Legend (symbols may be IN or ABOVE the tab line)

p  -  pull-off
h  -  hammer-on
/  -  slide UP
\  -  slide DOWN
b  -  bend string
br -  bend and return
() -  indicates what fret to bend to
~  -  finger vibrato


NOTE: THE = SYMBOL ABOVE THE TAB LINE IN BETWEEN h AND P MEAN NOTHING. I HAD TO USE THEM 
THEY WOULD BE IN LINE WITH THE FRET #s BELOW. IF WERE NOT THERE, THE h AND p SYMBOLS 
BE OUT OF PLACE.


Guitar 1 - rhythm 1 - clean electric(00:00) - (00:27)--------0-------------------------------0-----------------------|----------0-------------------------------0---------------------|------------0-----0-------0-----------------0-----0-------0-----|------2-------0-----5-------0---------2-------0-----5-------0---|----2----------/3-----3/5-----0-----2----------/3-----3/5-----0-|0-------------------------------0-------------------------------|
============================h------------------------0-------------------------------0-------|--1-----3---------3-------3-------------3---------0-------0-----|----0-----0---------2-----------------0---0---------2-------2---|------2-------0-------0-------0-----2-----------------1-------0-|3-----------2--------------02---------------0-1-2---------------|----------------2---------------0-------------------------------|
--------0-------------------------------0-----------------------|----------0-------------------------------0---------------------|------------0-----0-------0-----------------0-----0-------0-----|------2-------0-----5-------0---------2-------0-----5-------0---|----2----------/3-----3/5-----0-----2----------/3-----3/5-----0-|0-------------------------------0-------------------------------|
============================h------------------------0-------------------------------0------|--1-----3---------3-------3-------------3---------0-----0------|----0-----0---------2-----------------0---0---------2----------|------2-------0-------0-------0-----2-----------------1--------|3-----------2--------------02---------------0-1-2--------------|----------------2---------------0------------------------------|
Guitar 2 - lead 1 - distorted electric (Guitar 1 plays first half of rhythm 1 (above) while guitar 2 plays lead 1) (00:29) - (00:45)
----------------------------------------------------------|----------15b(17)~~~~---15br(17)-12-15--12h15p12----------|(16)14-12---------------------------------------14b(16)~~-|----------------------------------------------------------|----------------------------------------------------------|----------------------------------------------------------|
=============================h--------------------------12-15-15b(1/2)~~~~--12-15br(17)~~~~-|12-15-----------15br(17)--------------------------------------|------(16)14-12-----------------------------------------------|--------------------------------------------------------------|--------------------------------------------------------------|--------------------------------------------------------------|
15---12-15-14~~~~--12------------------------------------|----------------------15b(17)~~--r(15)-------------------|---------------------------------------14br(16)-12-14----|---------------------------------------------------------|---------------------------------------------------------|---------------------------------------------------------|
===h-------------------------|------12-----------------|12-14----12b(1/4)--------|------------------14~~~~-|-------------------------|-------------------------|
Guitar 1 - rhythm 2 - clean electric (00:45) - (01:13)
--------0-------------------------------0-----------------------|----------0-------------------------------0---------------------|------------0-----0-------0-----------------0-----0-------0-----|------2-------0-----5-------0---------2-------0-----5-------0---|----2----------/3-----3/5-----0-----2----------/3-----3/5-----0-|0-------------------------------0-------------------------------|
============================h------------------------0-------------------------------0-------|--1-----3---------3-------3-------------3---------0-------0-----|----0-----0---------2-----------------0---0---------2-------2---|------2-------0-------0-------0-----2-----------------1-------0-|3-----------2--------------02---------------0-1-2---------------|----------------2---------------0-------------------------------|
--------0-------------------------------0-----------------------|----------0-------------------------------0---------------------|------------0-----0-------0-----------------0-----0-------0-----|------2-------0-----5-------0---------2-------0-----5-------0---|----2----------/3-----3/5-----0-----2----------/3-----3/5-----0-|0-------------------------------0-------------------------------|
============================h------------------------0----------------------------0---------|--1-----3---------3-------3-------------3-----------3----------|----0-----0---------2-----------------0---0--------0-----------|------2-------0-------0-------0-----2-------2-----2------------|3-----------2--------------02--------------------2-------------|----------------2---------------0---------------0--------------|
Guitar 1 - rhythm 3 - clean electric (01:14) - (01:20)
----------------3-----0-----------2-----3-2--------|--1-----3-1-------1-----1---3-------3-------3-3----|----2-------2-----------------0-------2-------2----|------2-------2-----2-----2-----0-------------0----|0--------------------------------------------------|---------------------------------------------------|
Guitar 2 - lead 2 - distorted electric(Guitar 1 plays first half of rhythm 1 (top of page) while Guitar 2 plays lead 2)(01:21) - (01:37)===================p=h===h-----------------------------------------------------------|--------------7--8-7-------8-----------10br(12)-8-10b(12)--|----9~~~~------------9-7-9---9~~~~-------------------------|7/9--------------------------------------------------------|-----------------------------------------------------------|-----------------------------------------------------------|
=============================h7-10-------------------------------------------------------------|-----10b(12)~~--(12)10-8-----------------------------------------|-------------------------9-7-9---------------9~~--7--------------|-------------------------------7~~--\5-/7------------7-\5-/7~~~~-|------------------------------------------7----------------------|-----------------------------------------------------------------|
=====h-------------|-------------|-------------|~~~~\5-------|-------7~~~~-|-------------|
Guitar 1 now plays rhythm 2 (01:37) - (02:06) Guitar 1 now plays rhythm 3 (02:07) - (02:13) Guitar 1 - rhythm 4 - clean electric (02:14) - (02:18)
--------0-----------0---------|----------0-----3-----0-------|------0-----0-----0-----0-----|----2---------2-----------2---|------------------------------|0-----------------------------|
Guitar 1 now plays rhythm 3 (02:18) - (02:24) Guitars 2 and 3 - lead 3 - distorted electrics (Guitar 1 plays rhythm 5 while Guitar 2 plays lead 3) (02:25) - (02:43)
Guitar 2||--------------------------------------------------||||-------------7-8---------7-8--------7--8----------||||----7-9~~~~------------------7~~~~-------7-9~~~~--||||7/9--------------10~~~~---------------------------||||--------------------------------------------------||||--------------------------------------------------||
| || Guitar 3 |||-------------5-7---------5-7--------5--7----------||||----7-8~~~~------5~~~~~------7~~~~-------7-8~~~~--||||6/7-----------------------------------------------||||--------------------------------------------------||||--------------------------------------------------||||--------------------------------------------------||
||12-14-15-14--12----12------------------------------||||----------------15-------15-12---------------------||||-------------------------------14br(15)-12-14~~~~--||||---------------------------------------------------||||---------------------------------------------------||||---------------------------------------------------||
| || |||15-17-19-17--15-14-15----14------------------------||||----------------------------17-15br(17)----15~~~~--||||----------------------------------------16---------||||---------------------------------------------------||||---------------------------------------------------||||---------------------------------------------------||
=========================p||14br(15)-12-14~~~~--15-10---------||||--------------------------12~~~~--||||----------------------------------||||----------------------------------||||----------------------------------||||----------------------------------||
| ||========================p |||17br(19)-15-17~~~~--19-14---------||||--------------------------17~~~~--||||----------------------------------||||----------------------------------||||----------------------------------||||----------------------------------||
Guitar 1 - rhythm 5 - clean electric (Guitar 2 plays lead 3 (above) while guitar 1 plays rhythm 5) (02:26) - (02:43)
----------------------------------------------------------------|----------------------------------------------------------------|----------------5-------5-------7-------7-----------------------|2-------2-------5-------5-------7-------7-------2~~~~~~-2-------|2-------2-------3-------3-------5-------5-------2~~~~~~-2-------|0-------0-------3-------3-------5-------5-------0~~~~~~-0-------|
----------------------------------------------------------------|--------------------------------------------------1-----3-1-----|----------------5-------5-------7-------7-----------2-------2---|2-------2-------5-------5-------7-------7-------------2-------2-|2-------2-------3-------3-------5-------5-------0---------------|0-------0-------3-------3-------5-------5-----------------------|
3-----0---------|--1-----1---3---|--------------0-|----2-----2-----|----------------|----------------|
Guitar 1 now plays first half of rhythm 1 x2(twice) (02:43) - (03:13) Guitar 1 now plays bottom half of rhythm 2 (03:13) - (03:27) Guitar 1 now plays rhythm 3 (03:28) - (03:34) Guitar 1 now plays rhythm 4 (03:35) - (03:39) Guitar 1 now plays rhythm 3 (03:40) - (03:45) Guitar 1 now plays rhythm 4 (03:46) - (03:50) Guitar 1 now plays rhythm 3 (03:51) - (03:57) Guitar 1 now plays rhythm 4 (03:58) - (04:02) Guitar 1 now plays rhythm 3 (04:02) - (04:08) Guitar 1 - rhythm 6 - clean electric (04:10) - (04:23)
---X--------------X--------------X--------------X-----------|---X--------------X--------------X--------------X-----------|---X-----------5--X-------5-5-7--X-------7-7-9--X-------9-9-|2--X-------2-2-5--X-5---5-5-5-7--X-7---7-7-7-9--X-9---9-9-9-|2--X-2---2-2-2-3--X-3---3-3-3-5--X-5---5-5-5-7--X-7---7-7-7-|0--X-0---0-0-0-3--X-3---3-3-3-5--X-5---5-5-5-7--X-7---7-7-7-|
---X--------------X--------------X---------X----------------|---X--------------X--------------X---------X----------------|9--X-------9-9-5--X-------5-5-4--X---------X-2--------------|9--X-9---9-9-9-5--X-5---5-5-5-4--X-4---4---X-2--------------|7--X-7---7-7-7-3--X-3---3-3-3-2--X-2---2---X-0--------------|7--X-7---7-7-7-3--X-3---3-3-3-2--X-2---2---X-0--------------|
Guitar 1 - rhythm 7 - clean electric
---X-x-X-x-X-x----X-x-X-x-X-x----X-x-X-x-X-x----X-x-X-x-X-x-|---X-x-X-x-X-x----X-x-X-x-X-x----X-x-X-x-X-x----X-x-X-x-X-x-|---X-x-X-x-X-x-5--X-x-X-x-X-x-7--X-x-X-x-X-x-9--X-x-X-x-X-x-|2--X-x-X-x-X-x-5--X-x-X-x-X-x-7--X-x-X-x-X-x-9--X-x-X-x-X-x-|2--X-x-X-x-X-x-3--X-x-X-x-X-x-5--X-x-X-x-X-x-7--X-x-X-x-X-x-|0--X-x-X-x-X-x-3--X-x-X-x-X-x-5--X-x-X-x-X-x-7--X-x-X-x-X-x-|
---X-x-X-x-X-x----X-x-X-x-X-x----X--------------------------|---X-x-X-x-X-x----X-x-X-x-X-x----X--------------------------|9--X-x-X-x-X-x-5--X-x-X-x-X-x-4--X-4------------------------|9--X-x-X-x-X-x-5--X-x-X-x-X-x-4--X-4------------------------|7--X-x-X-x-X-x-3--X-x-X-x-X-x-2--X-2------------------------|7--X-x-X-x-X-x-3--X-x-X-x-X-x-2--X-2-----3-2-0--------------|
Guitar 2 - lead 4 - distorted electric (I'll finish as soon as I can) -some of the notes are played so fast where they are tabbed directly side by side. If they are tabbed side by side I will put the "h" and "p" (hammer-ons and pull-offs) symbols above the tablature line. This keeps timing more accurate. (played with rhythms 6 and 7) (04:23) - (07:12)
----12----------------------------------------------------------|/12----12-15b(17)~~~(17)~~~(17)~~~(17)15-15~~~15~~~15-12--------|---------------------------------------------------------14-/16-|----------------------------------------------------------------|----------------------------------------------------------------|----------------------------------------------------------------|
---------------------------------------------------------------|1715--15-------------------------------------------17----15/17-|----16--1614161514--14\12------12-14br(15)\--14/16----16-------|------------------17-----1414----------------------------------|---------------------------------------------------------------|---------------------------------------------------------------|
15---------------------------------------------------------|---17~~-17\15~~~15~~~15~~~15-12-15p12----15p12----15p12----|--------------------------------------14-------14-------14-|-----------------------------------------------------------|-----------------------------------------------------------|-----------------------------------------------------------|
-------------------------------------------------------------|15p12----15p12-----------------------------------------------|------14-------12------------12-14br(15)-12------------------|------------------14~~~14~~-----------------14~~14-12h1414~~-|-------------------------------------------------------------|-------------------------------------------------------------|
===========================================h===p---------------------------------------------------------------|---------------------------------------------------12-------12-|-----------------------------------------1214141212--14b(16)---|14-12----------------------------------------------------------|------12\10h12p10----10-12bh(13)-10-12/14----------------------|-----------------h12-------------------------------------------|
====p12151212---------15----------------------15p12----15p12----|--------1215b(17)--15b(17)~(17)~~~~15-12-------12-------12-|-----------------------------------------------------------|-----------------------------------------------------------|-----------------------------------------------------------|-----------------------------------------------------------|
15p12----15p12----15p12---------------------------------------|------12-------12------------15p12----15p12----15p12----15p12-|------------------------12---------12-------12-------12-------|--------------------------------------------------------------|--------------------------------------------------------------|--------------------------------------------------------------|
---------------15----------15-----------15~~~~~~~~~~~~~15~~~~~-|---12-15b-(17)----15b(17)----15b(17)~~~~~~~~~~~(17)~~~~~~~~~~~-|12-------------------------------------------------------------|---------------------------------------------------------------|---------------------------------------------------------------|---------------------------------------------------------------|
=====================h=p=h=p=h===h=p=h=p=h===h=p=h=p=h--------------------------------------------------------|(17)-15-12---------1215121412--1215121412--1215121412---|-----------14b-(16)----------14----------14----------14-|--------------------------------------------------------|--------------------------------------------------------|--------------------------------------------------------|
==h=p=h=p=h===h=p=h=p=h===h=p=h=p=h===h=p=h=p=h=========p--------------------------------------------------1212151212-|1215121412--1215121412--1215121412--1215121412--12-----------|----------14----------14----------14----------14-------------|-------------------------------------------------------------|-------------------------------------------------------------|-------------------------------------------------------------|
=====h=p====h====================h=p=h=p=h===h=p=h=p=h===h=p=h=p=h1212151212121512--1212--------1215121412--1215121412--1215121412---|----------------12----14b-(15)----------15----------15----------15-|-------------------------------------------------------------------|-------------------------------------------------------------------|-------------------------------------------------------------------|-------------------------------------------------------------------|
1215121412--121512--12--15b-(17)---15b(16)17--15b(16)17--15br(17--|----------15------------------------------------------------------|------------------------------------------------------------------|------------------------------------------------------------------|------------------------------------------------------------------|------------------------------------------------------------------|
Tap to rate this tab
 
# A B C D E F G H I J K L M N O P Q R S T U V W X Y Z