Blaze – Born As A Stranger tab

Artist: BLAZE
Title: Born as a Stranger
Album: Silicon Messiah
Transcribed by: Neil Thompson (the_wicker_man_84@hotmail.com)


Intro:

E||----------------------------------|----------------------------------|B||----------------------------------|----------------------------------|G||----------------------------------|----------------------------------|D||------7-7-6-6-7-7-----7-7-6-6-7-7-|------7-7-6-6-7-7-----7-7-6-6-7-7-|A||--9-9-------------9-9-------------|--5-5-------------5-5-------------|E||----------------------------------|----------------------------------|
|----------------------------------|----------------------------------||----------------------------------|----------------------------------||----------------------------------|----------------------------------||------7-7-6-6-7-7-----7-7-6-6-7-7-|------9-9-7-7-9-9-----9-9-7-7-9-9-||--9-9-------------9-9-------------|--7-7-------------7-7-------------||----------------------------------|----------------------------------|
|----------------------------------|----------------------------------||----------------------------------|----------------------------------||----------------------------------|----------------------------------||------7-7-6-6-7-7-----7-7-6-6-7-7-|------7-7-6-6-7-7-----7-7-6-6-7-7-||--9-9-------------9-9-------------|--5-5-------------5-5-------------||----------------------------------|----------------------------------|
| |
|----------------------------------|----------------------------------||----------------------------------|----------------------------------||---13/14--13----------------------|---13/14--13----------------------||--------------14--11--------------|--------------14--11--------------||----------------------------------|----------------------------------||----------------------------------|----------------------------------|
|----------------------------------|----------------------------------||----------------------------------|----------------------------------||----------------------------------|----------------------------------||------7-7-6-6-7-7-----7-7-6-6-7-7-|------9-9-7-7-9-9-----9-9-7-7-9-9-||--9-9-------------9-9-------------|--7-7-------------7-7-------------||----------------------------------|----------------------------------|
| |
|----------------------------------|----------------------------------||----------------------------------|----------------------------------||---13/14--13----------------------|----------------------------------||--------------14--11--------------|--9/11----9----9------------------||----------------------------------|----------------------------------||----------------------------------|----------------------------------|
|----------------------------------|----------------------------------||----------------------------------|----------------------------------||----------------------------------|----------------------------------||------7-7-6-6-7-7-----7-7-6-6-7-7-|------7-7-6-6-7-7-----7-7-6-6-7-7-||--9-9-------------9-9-------------|--5-5-------------5-5-------------||----------------------------------|----------------------------------|
| |
|----------------------------------|----------------------------------||----------------------------------|----------------------------------||---13/14--13----------------------|---13/14--13----------------------||--------------14--11--------------|--------------14--11--------------||----------------------------------|----------------------------------||----------------------------------|----------------------------------|
|----------------------------------|----------------------------------||----------------------------------|----------------------------------||----------------------------------|----------------------------------||------7-7-6-6-7-7-----7-7-6-6-7-7-|------9-9-7-7-9-9-----9-9-7-7-9-9-||--9-9-------------9-9-------------|--7-7-------------7-7-------------||----------------------------------|----------------------------------|
| |
|----------------------------------|----------------------------------||----------------------------------|----------------------------------||---13/14--13----------------------|--14b-----------------------------||--------------14--11--------------|----------------------------------||----------------------------------|----------------------------------||----------------------------------|----------------------------------|
Then 4x
|-----------------------------------|-----------------------------------||-----------------------------------|-----------------------------------||-----------------------------------|-----------------------------------||-----------------------------------|-----------------------------------||-------4-4-2-2-4-4-----4-4-2-2-4-4-|------7-7-5-5-7-7------------------||---2-2-------------2-2-------------|--5-5-------------9-9-9---7-7-7----|
| |
|-----------------------------------|-----------------------------------||-----------------------------------|-----------------------------------||-----------------------------------|--2-2-2-2-2-2-2-2-6-6-6-6-4-4-4-4--||---4-4-4-4-4-4-4-4-4-4-4-4-4-4-4-4-|--2-2-2-2-2-2-2-2-6-6-6-6-4-4-4-4--||---4-4-4-4-4-4-4-4-4-4-4-4-4-4-4-4-|--0-0-0-0-0-0-0-0-4-4-4-4-2-2-2-2--||---2-2-2-2-2-2-2-2-2-2-2-2-2-2-2-2-|-----------------------------------|
Vers: First
3x|-----------------------------|-----------------------------||-----------------------------|-----------------------------||-----------------------------|-----------------------------||-----------------------------|--2--2-2--2-2--6--6-6--6-6---||---4--4-4--4-4--4--4-4--4-4--|--0--0-0--0-0--4--4-4--4-4---||---2--2-2--2-2--2--2-2--2-2--|-----------------------------|
1x|----------------------------|-------------------------------||----------------------------|-------------------------------||----------------------------|-------------------------------||----------------------------|--2--2-2--2-2------------------||--4--4-4--4-4--4--4-4--4-4--|--0--0-0--0-0--4-4-4-4-2-2-2-2-||--2--2-2--2-2--2--2-2--2-2--|-------------------------------|
Then (In Following Verses Play Just This)
3x|-----------------------------|-----------------------------||-----------------------------|-----------------------------||-----------------------------|--2------------6-------------||---4------------4------------|--2--2-2--2-2--6--6-6--6-6---||---4--4-4--4-4--4--4-4--4-4--|--0--0-0--0-0--4--4-4--4-4---||---2--2-2--2-2--2--2-2--2-2--|-----------------------------|
1x|----------------------------|-------------------------------||----------------------------|-------------------------------||----------------------------|--2----------------------------||--4------------4------------|--2--2-2--2-2------------------||--4--4-4--4-4--4--4-4--4-4--|--0--0-0--0-0--4-4-4-4-2-2-2-2-||--2--2-2--2-2--2--2-2--2-2--|-------------------------------|
Bridge:
|---------------------------------|-------------------------------||---------------------------------|-------------------------------||----------------5----------------|--7----------------------------||--2-------------5----------------|--7----------------------------||--2-------------3----------------|--5----------------------------||--0------------------------------|-------------------------------|
| |
|--------5-----5--------5-7-8-10--|--------5-----5-5--------------||--5-7-8---7-8----5-7-8-----------|--5-7-8---7-8------8-7-8--7-5--||---------------------------------|-------------------------------||---------------------------------|-------------------------------||---------------------------------|-------------------------------||---------------------------------|-------------------------------|
|---------------------------------|--------------------------||---------------------------------|--------------------------||---------------5-----------------|----------------7---------||--2------------5-----------------|--5-------------7---------||--2------------3-----------------|--5-------------5---------||--0------------------------------|--3-----------------------|
| |
|--------5-----5--------5-7-8-10--|--------5-----5-5---------||--5-7-8---7-8----5-7-8-----------|--5-7-8---7-8-------------||---------------------------------|--------------------------||---------------------------------|--------------------------||---------------------------------|--------------------------||---------------------------------|--------------------------|
|---------------------------------|-------------------------------||---------------------------------|-------------------------------||----------------5----------------|--7----------------------------||--2-------------5----------------|--7----------------------------||--2-------------3----------------|--5----------------------------||--0------------------------------|-------------------------------|
| |
|--------5-----5--------5-7-8-10--|--------5-----5-5--------------||--5-7-8---7-8----5-7-8-----------|--5-7-8---7-8------8-7-8--7-5--||---------------------------------|-------------------------------||---------------------------------|-------------------------------||---------------------------------|-------------------------------||---------------------------------|-------------------------------|
|---------------------------------|------------------------||---------------------------------|------------------------||---------------5-----------------|--------------7---------||--2------------5-----------------|--5-----------7---------||--2------------3-----------------|--5-----------5---------||--0------------------------------|--3---------------------|
| |
|--------5-----5--------5-7-8-10--|-------------5----------||--5-7-8---7-8----5-7-8-----------|--5---7---8------8---7--||---------------------------------|------------------------||---------------------------------|------------------------||---------------------------------|------------------------||---------------------------------|------------------------|
Chorus:
|-------------------|------------------||-------------------|------------------||-------------------|------------------||--2----------------|------------------||--2----------------|------------------||--0----------------|------------------|
|-------------------|-------------------||-------------------|-------------------||--5----------------|--7----------------||--5----------------|--7----------------||--3----------------|--5----------------||-------------------|-------------------|
On 2nd time (this isnt 100% correct, but its very difficult to hear)
|----------------------------------|----------------------------------||----------------------------------|----------------------------------||----------------------------------|----------------------------------||--2-------------------------------|----------------------------------||--2-------------------------------|----------------------------------||--0-------------------------------|----------------------------------|
| |
|----------------------------------|----------------------------------||--8-7-5---------------------------|--8-7-5---------------------------||--------7-4-----------------------|--------7-4-----------------------||------------7-5-4-5-4---4---------|------------7-5-4-5-4---4---------||----------------------7---7-5-----|----------------------7---7-5-----||------------------------------7-5-|------------------------------7-5-|
|----------------------------------|----------------------------------||----------------------------------|----------------------------------||--5-------------------------------|--7-------------------------------||--5-------------------------------|--7-------------------------------||--3-------------------------------|--5-------------------------------||----------------------------------|----------------------------------|
| |
|----------------------------------|----------------------------------||--8-7-5---------------------------|--8-7-5-------------8-7-5---------||--------7-4-----------------------|--------7-4---------------7-5-4---||------------7-5-4-5-4---4---------|------------7-5-4-5-------------7-||----------------------7---7-5-----|----------------------------------||------------------------------7-5-|----------------------------------|
Interlude 1:
|---------------------------------|----------------------------------||---------------------------------|----------------------------------||---------------------------------|--2-------------------------------||---4-----------------------------|--2--2-2-2-2-2-2------------------||---4--4-4-4-4-4-4-2r-------------|--0--0-0-0-0-0-0-4-4-4-4-2-2-2-2--||---2--2-2-2-2-2-2----5-4-2-4-2-0-|----------------------------------|
Interlude 2 (Before Solo):
|-------------------------|--------------------------||-------------------------|--------------------------||-------------------------|----2----------5--5-------||----2----------5--5------|----2--2-2-2-2-5--5-------||----2--2-2-2-2-5--5------|----0--0-0-0-0-3--3-------||----0--0-0-0-0-3--3------|--------------------------|
|-------------------------|--------------------------||-------------------------|-----------3-----------5--||-------------------------|--------5-----------7-----||----2----------5--5------|-----5-----------7--------||----2--2-2-2-2-5--5------|--3-----------5-----------||----0--0-0-0-0-3--3------|--------------------------|
Guitar1|-------------------------|--------------------------||-------------------------|--------------------------||-------------------------|----2----------5--5-------||----2----------5--5------|----2--2-2-2-2-5--5-------||----2--2-2-2-2-5--5------|----0--0-0-0-0-3--3-------||----0--0-0-0-0-3--3------|--------------------------|
|
|Guitar2|-------------------------|--------------------------||----7/8-7----------------|----7/8-7-----------------||-----------7-------------|-----------7--------------||--------------9~---------|--------------9~----------||-------------------------|--------------------------||-------------------------|--------------------------|
|
|Guitar3|-------------------------|--------------------------||--10/12-10---------------|--10/12-10----------------||-----------11------------|-----------11-------------||--------------12~--------|--------------12~---------||-------------------------|--------------------------||-------------------------|--------------------------|
Guitar1|-------------------------|--------------------------||-------------------------|-----------3-----------5--||-------------------------|--------5-----------7-----||----2----------5--5------|-----5-----------7--------||----2--2-2-2-2-5--5------|--3-----------5-----------||----0--0-0-0-0-3--3------|--------------------------|
|
|Guitar2|-------------------------|--------------------------||----7/8-7----------------|--------------------------||-----------7-------------|--------------------------||--------------9~---------|--9b---------11b----------||-------------------------|--------------------------||-------------------------|--------------------------|
|
|Guitar3|-------------------------|--------------------------||--10/12-10---------------|--------------------------||-----------11------------|--------------------------||--------------12~--------|--9b---------11b----------||-------------------------|--------------------------||-------------------------|--------------------------|
Guitar1|-------------------------|--------------------------||-------------------------|--------------------------||-------------------------|----2----------5--5-------||----2----------5--5------|----2--2-2-2-2-5--5-------||----2--2-2-2-2-5--5------|----0--0-0-0-0-3--3-------||----0--0-0-0-0-3--3------|--------------------------|
|
|Guitar2|-------------------------|--------------------------||----7/8-7----------------|----7/8-7-----------------||-----------7-------------|-----------7--------------||--------------9~---------|--------------9~----------||-------------------------|--------------------------||-------------------------|--------------------------|
|
|Guitar3|-------------------------|--------------------------||--10/12-10---------------|--10/12-10----------------||-----------11------------|-----------11-------------||--------------12~--------|--------------12~---------||-------------------------|--------------------------||-------------------------|--------------------------|
On Last Time:
Guitar1|-------------------------------|----------------------------------||-------------------------------|----------------------------------||-------------------------------|----------------------------------||-----5---4--5-------7-------7--|-------9-------9------10---9--10--||--7-------------9------10------|--10------12------12--------------||-------------------------------|----------------------------------|
|
|Guitar2|-------------------------------|----------------------------------||-----8------8------10------10--|------12------12------13------13--||--9-----11-----11------12------|--12------14------14------16------||-------------------------------|----------------------------------||-------------------------------|----------------------------------||-------------------------------|----------------------------------|
Solo Rythm 1:
|---------------------------|---------------------------||---------------------------|---------------------------||--9---9---------------9----|--9---9---------------9----||--9---9---------------9----|--9---9---------------9----||--7---7---7-7-7-7-7-7-7----|--7---7---7-7-7-7-7-7-7----||---------------------------|---------------------------|
|---------------------------|---------------------------||---------------------------|---------------------------||--5---5---------------5----|--7---7---------------7----||--5---5---------------5----|--7---7---------------7----||--3---3---3-3-3-3-3-3-3----|--5---5---5-5-5-5-5-5-5----||---------------------------|---------------------------|
Solo Rythm 2:
|--------------------------|--------------------------||--------------------------|--------------------------||--------------------------|--------------------------||--------------------------|--------------------------||--9--9--9--9--9--9--9--9--|--9--9--9--9--9--9--9--9--||--7--7--7--7--7--7--7--7--|--7--7--7--7--7--7--7--7--|
|--------------------------|--------------------------||--------------------------|--------------------------||--------------------------|--------------------------||--------------------------|--------------------------||--5--5--5--5--5--5--5--5--|--7--7--7--7--7--7--7--7--||--3--3--3--3--3--3--3--3--|--5--5--5--5--5--5--5--5--|
Outro:
|----------------------------|----------------------------||----------------------------|----------------------------||----------------------------|----------------------------||--2-------------------------|----------------------------||--2-------------------------|----------------------------||--0-------------------------|----------------------------|
| |
|----------------------------|----------------------------||----------------------------|----------------------------||----------------------------|----------------------------||--2--2-2--2-2--4--4-4--4-4--|--5--5-5--5-5--7--7-7--7-7--||----------------------------|----------------------------||----------------------------|----------------------------|
|---------------------------------|---------------------------||---------------------------------|---------------------------||--5------------------------------|--7------------------------||--5------------------------------|--7------------------------||--3------------------------------|--5------------------------||---------------------------------|---------------------------|
| | |
|---------------------------------|---------------------------||---------------------------------|---------------------------||---------------------------------|---------------------------||--10--10-10--10-10--9--9-9--9-9--|--7--7-7--7---7-7-7--7-7---||---------------------------------|---------------------------||---------------------------------|---------------------------|
|----------------------------|----------------------------||----------------------------|----------------------------||----------------------------|----------------------------||--2-------------------------|----------------------------||--2-------------------------|----------------------------||--0-------------------------|----------------------------|
| |
|----------------------------|----------------------------||----------------------------|----------------------------||----------------------------|----------------------------||--2--2-2--2-2--4--4-4--4-4--|--5--5-5--5-5--7--7-7--7-7--||----------------------------|----------------------------||----------------------------|----------------------------|
|--------------------------------------|---------------------------||--------------------------------------|---------------------------||--5-----------------------------------|--7------------------------||--5-----------------------------------|--7------------------------||--3-----------------------------------|--5------------------------||--------------------------------------|---------------------------|
| |
|--------------------------------------|---------------------------||--------------------------------------|---------------------------||--------------------------------------|---------------------------||--10--10-10--10-10--10--10-10--10-10--|--0--0-0--0---0-0-0--0-0---||--------------------------------------|---------------------------||--------------------------------------|---------------------------|
|----------------------|----------------------||----------------------|----------------------||--9-------------------|--9-------------------||--9-------------------|--9-------------------||--7-------------------|--7-------------------||----------------------|----------------------|
| |
|----------------------|----------------------||----------------------|----------------------||--9\---9\---9\---9\---|--9\---9\---9\---9\---||--9\---9\---9\---9\---|--9\---9\---9\---9\---||----------------------|----------------------||----------------------|----------------------|
|------------------------------|------------------------||------------------------------|------------------------||--5---------------------------|--7---------------------||--5---------------------------|--7---------------------||--3---------------------------|--5---------------------||------------------------------|------------------------|
| |
|------------------------------|------------------------||--15---15---15--15---15---15--|------------------------||--14b--14b--14b-14b--14b--14b-|--14--------14--12------||------------------------------|------------------------||------------------------------|------------------------||------------------------------|------------------------|
|------------------------------------------------------------------||------------------------------------------------------------------||--9---------------------------------------------------------------||--9---------------------------------------------------------------||--7---------------------------------------------------------------||------------------------------------------------------------------|
| |
|--15-12-0---------15-12-0---------15-12-0---------15-12-0---------||----------15-12-0---------15-12-0---------15-12-0---------15-12-0-||------------------------------------------------------------------||------------------------------------------------------------------||------------------------------------------------------------------||------------------------------------------------------------------|
|----------------------------------------------||----------------------------------------------||--9-------------------------------------------||--9-------------------------------------------||--7-------------------------------------------||----------------------------------------------|
| |
|--15-12-0-------------------------------------||----------15-12-0-----------------------------||------------------15-14-12----12-14-14b-------||---------------------------14-----------------||----------------------------------------------||----------------------------------------------|
|----------------------|-------------------||----------------------|-------------------||--5-------------------|--7----------------||--5-------------------|--7----------------||--3-------------------|--5----------------||----------------------|-------------------|
|----------------------|-------------------||----------------------|-------------------||----------------------|-------------------||-------------------4--|--5--------4-------||--7----------5--7-----|-------------------||----------------------|-------------------|
|-------------------|-----|||-------------------|-----|||-------------------|-----|||--2----------------|--2--|||--2----------------|--2--|||--0----------------|--0--||
Please rate this tab:
x1.0