Bled - Antarctica tab

This is only Guitar I, But I still hope you enjoy!
:)


(INTRO)D|------------------------------------------|A|-----13--13--------13---------------------|F|----------------------------16------14----|C|---14--14--14---------14-------14---------|G|-0-------------0h15------15-------15---15-|D|------------------------------------------|
|--------------------------------------||-----15--15b-------15---13-12---------||-----------------------------13-------||---14--14--------14------------15/10--||-11------------11---------------------||--------------------------------------|
|-----------0-------0--|-10/12----------------------||------10-----10---10--|--------------12/10---------||----10--10--------10--|----------------------------||----------------------|---------------------9-10---||--8---------------10--|----------[12]-----0--------||----------------------|----------------------------| [Play 3 times, last time leave out last measure]
|----8--8-----------8--8-------------8--8-------------8----||----------------------------------------------------------||---9--9--9---9---9--9--9---9h10--10--10--10---10--10--10--||-------------------------------------------------9--------||-0---------0---0---------0----0-------------0-------------||----------------------------------------------------------| [play 12 times]
|-8=---8=---7=---8=----7=----||-10=--10=--10=--10=---9=----||-9=---7=---7=---9=----7=----||------9=---9=---10=---9=----||----------------------7=----||----------------------------|
|-----------------------------------------||-----------------------------------------||----------------------2222222222222222---||-5-77777777-8888-777--3333333333333333---||-0-00000000-0000-000--0000000000000000---||-----------------------------------------| [3 times]
|----------------------0000000000000000---||----------------------0000000000000000---||----------------------2222222222222222---||-5-77777777-8888-777--3333333333333333---||-0-00000000-0000-000--0000000000000000---||-----------------------------------------| [1 time]
|------------------------||------------------------||--222222222-------------||--333333333--7777777----| |--000000000--0000000----||------------------------|
|----------------------------||----------------------------||--P.M5=---P.M5=--P.M5=------||--P.M3=---P.M2=--P.M2=--6=--||----------P.M0=---------7=--||------------------------0=--| [2 times]
|-----------------------------------------||-----------------------------------------||----------------------2222222222222222---||-5-77777777-8888-777--3333333333333333---||-0-00000000-0000-000--0000000000000000---||-----------------------------------------| [3 times]
|----------------------0000000000000000---||----------------------0000000000000000---||----------------------2222222222222222---||-5-77777777-8888-777--3333333333333333---||-0-00000000-0000-000--0000000000000000---||-----------------------------------------| [1 time]
|------------------------||------------------------||--222222222-------------||--333333333--7777777----| |--000000000--0000000----||------------------------|
D|------------------------------------------|A|-----13--13--------13---------------------|F|----------------------------16------14----|C|---14--14--14---------14-------14---------|G|-0-------------0h15------15-------15---15-|D|------------------------------------------|
|--------------------------------------||-----15--15b-------15---13-12---------||-----------------------------13-------||---14--14--------14------------15/10--||-11------------11---------------------||--------------------------------------|
|-----------0-------0--||------10-----10---10--||----10--10--------10--||----------------------||--8---------------10--||----------------------|
h=Hammer b=Bend /=slide [=]=strum P.M=palm mute Any questions feel free to send me an Email!
Tap to rate this tab
 
# A B C D E F G H I J K L M N O P Q R S T U V W X Y Z