Blessthefall - Take Me Now tab




     band name  :bless the fall
     song : take me now
     tabbed by  :raymond rosalejos



    paki intindi nalang
    this is my 3rd tab
    hahahah



    paki-add naman
    sandatahang_scremo@yahoo.com
    hopesdielast_mond@yahoo.com.ph



==================================================================================

(riff-1)

intro: ha!!!ha!!ha!!|-------------------------------------------||-------------------------------------------||-------------------------------------------||-----------------7~~~----------------------||-------------------------------------------||-------------------------------------------|
guitar:1 This conversation didn't mean anything to you.|-------------------------------------------------------||-------------------------------------------------------||-------------------------------------------------------||-000-00-00---000--00-00-00--333-33-33---222-2-3-22-22--||-000-00-00---000--00-00-00--333-33-33---222-2-3-22-22--||-000-00-00---000--00-00-00--333-33-33---222-2-3-22-22--|... .. .. pm... .. .. .. ... .. .. pm... . . .. ..
guitar:2 tappings|-------------------------------------------------------||------(4x)-------(2x)-------(2x)-----------------------||-9-0-5-----0-5-10-----0-5-7----------------------------|3x|-------------------------------------------------------||-------------------------------------------------------||-------------------------------------------------------|
|-------------------------------------------------------||------(4x)-------(2x)-------------------- -------------||-9-0-5-----0-5-10-----0-5-10--0-5-9--------------------|1x|-------------------------------------------------------||-------------------------------------------------------||-------------------------------------------------------|
guitar:1 This conversation didn't mean anything to you.|-------------------------------------------------------||-------------------------------------------------------||-------------------------------------------------------||-000-00-00---000--00-00-00--333-33-33---222-2-3-22-22--||-000-00-00---000--00-00-00--333-33-33---222-2-3-22-22--||-000-00-00---000--00-00-00--333-33-33---222-2-3-22-22--| ... .. .. pm... .. .. .. ... .. .. pm... . . .. ..
guitar:2 tappings|-------------------------------------------------------||------(4x)-------(2x)-------(2x)-----------------------||-9-0-5-----0-5-10-----0-5-7----------------------------|2x|-------------------------------------------------------||-------------------------------------------------------||-------------------------------------------------------|
|-------------------------------------------------------||------(4x)-------(2x)-------(2x)-----------------------||-9-0-5-----0-5-10-----0-5-12---------------------------|1x|-------------------------------------------------------||-------------------------------------------------------||-------------------------------------------------------|
|-------------------------------------------------------||------(4x)-------(2x)----------------------------------||-9-0-5-----0-5-7-----0-5-10--0-5-9---------------------|1x|-------------------------------------------------------||-------------------------------------------------------||-------------------------------------------------------|
============================================================================ ============================================================================ (riff-2) 2x part na eto
guitar:1 This conversation didn't mean anything to you.|-------------------------------------------------------||-------------------------------------------------------||-------------------------------------------------------||-000-00-00---000--00-00-00--333-33-33---222-2-3-22-22--||-000-00-00---000--00-00-00--333-33-33---222-2-3-22-22--||-000-00-00---000--00-00-00--333-33-33---222-2-3-22-22--| ... .. .. pm... .. .. .. ... .. .. pm... . . .. ..
guitar:2 tappings|-------------------------------------------------------||------(3x)---------------------------------------------||-9-0-5-----0-5-10-----0-5-7-8-7-5----------------------|3x|-------------------------------------------------------||-------------------------------------------------------||-------------------------------------------------------|
|-------------------------------------------------------||------(3x)---------------------------------------------||-9-0-5-----0-5-10-----0-5-10-5-9-----------------------|1x|-------------------------------------------------------||-------------------------------------------------------||-------------------------------------------------------|
============================================================================ ============================================================================ (riff-3)
guitar-1 This conversation didn't mean anything to you.|-------------------------------------------------------||-------------------------------------------------------||-------------------------------------------------------||-0~--000--0~--0003~---333~--22222222--33333333---------||-0~--000--0~--0003~---333~--22222222--33333333---------||-0~--000--0~--0003~---333~--22222222--33333333---------| ... ... .. ........ ........
guitar:2 tappings |-------------------------------------------------------||------(3x)---------------------------------------------||-9-0-5-----0-5-10-----0-5-7-8-7-5----------------------|2x|-------------------------------------------------------||-------------------------------------------------------||-------------------------------------------------------|
|-------------------------------------------------------||------(4x)---------------------------------------------||-9-0-5-----0-5-10-----0-5-7-5-7-9----------------------|1x|-------------------------------------------------------||-------------------------------------------------------||-------------------------------------------------------|
|-------------------------------------------------------||------(3x)---------------------------------------------||-9-0-5-----0-5-10-----0-5-10-5-9-----------------------|1x|-------------------------------------------------------||-------------------------------------------------------||-------------------------------------------------------|
============================================================================ ============================================================================ (riff-4) 2x part na eto
(guitar-1) take me now|-------------------------------------------------------||-------------------------------------------------------||------------7-9-11------------9-11-12------------------||-000-00-00--x-x-x--000-00-00--x-x--x-------------------||-000-00-00--5-7-8--000-00-00--7-8-10-------------------||-000-00-00---------000-00-00---------------------------| ... .. .. pm ... .. ..
|-------------------------------------------------------||-------------------------------------------------------||------------12-10-9------------------------------------||-333-33-33---x-x-x---222-2-3-22-22---------------------||-333-33-33--10-8-7---222-2-3-22-22---------------------||-333-33-33-----------222-2-3-22-22---------------------| ... .. .. pm ... . . .. ..
(guitar-2)take me now|----------------------------------------------------||---------(4x)------(2x)------(2x)-------------------||-12-0-8---0-8-13---0-8-10---------------------------|3x|----------------------------------------------------||----------------------------------------------------||----------------------------------------------------|
|--------(4x)-------(2x)-----------------------------||-12-0-8---0-8-10-----0-8-13--0-8-12-----------------||----------------------------------------------------||----------------------------------------------------||----------------------------------------------------||----------------------------------------------------|
============================================================================
|----------------------------------------------------||---------(3x)---------------------------------------||-12-0-8----0-8-13---0-8-10-8-10-8-------------------|3x|----------------------------------------------------||----------------------------------------------------||----------------------------------------------------|
|----------------------------------------------------||---------(3x)---------------------------------------||-12-0-8---0-8-10---0-8-13-8-12----------------------||----------------------------------------------------||----------------------------------------------------||----------------------------------------------------|
============================================================================ (outro)
(guitar-1)|----------------------------------------------------||----------------------------------------------------||----------------------------------------------------||-0~-------------------------------------------------||-0~-------------------------------------------------||-0~-------------------------------------------------|
(guitar-2)|----------------------------------------------------||-------(3x)-----------------------------------------||-12-0-8------0-8-13---0-8-10-8-10-8-----------------|2x|----------------------------------------------------||----------------------------------------------------||----------------------------------------------------|
|----------------------------------------------------||-------(5x)-----------------------------------------||-12-0-8------0-8-11---0-8-10~~----------------------||----------------------------------------------------||----------------------------------------------------||----------------------------------------------------|
Tap to rate this tab
 
# A B C D E F G H I J K L M N O P Q R S T U V W X Y Z