You Never Can Tell tab with lyrics by Blind Boy Fuller for guitar @ Guitaretab

Blind Boy Fuller – You Never Can Tell tab

Song: You Never Can Tell 
Artist: Blind Boy Fuller


Tuning: Standard


                                        
E||--3--2--1------0-----------------|-----------------3--------|B||-----------3-4----1--------------|--1-----------------------|G||---------------------3--0--------|--------3--3-----------1--|D||---------------------------3--2--|--------------------2-----|A||---------------------------------|--3-----3-----3-----------|E||---------------------------------|-----3--------------------|
-------3----------------|-----3-------------------|-------------1----------|--------------1----------|--2-------2----------1--|--2--------2-------------|-------3----------3-----|--------3----------3-----|------------------------|-------------------------|--1----------1----------|--1-----------1-------3--|
-----------------------------------|--------------------------|--1----3b--3--1-----------------1--|-----------------1--------|-----------------3--0--------------|--------3--3-----------1--|-----------------------4--3--2-----|--------------------2-----|--3--------------------------------|--3-----3-----------------|-----------------------------------|-----3--------3-----------|
-------3--------3--------|-----3-------------------|-------------1-----------|--------------1----------|--2-------2-----------1--|--2--------2-------------|-------3-----------3-----|--------3----------3-----|-------------------------|-------------------------|--1----------1-----------|--1-----------1-------3--|
-----------------------------------|-------3--3------------|--1----3b--3--1-----------------1--|-----------------------|-----------------3--0--------------|-----------------------|-----------------------4--3--2-----|-------2----------2----|--3--------------------------------|-------------3---------|-----------------------------------|--3--------------------|
-------1-----1--3--------|-----3------------------|----------3--------------|-------------1----------|----------------------1--|--2---------------------|-------0-----------0-----|--------3----1----1-----|-------------------------|------------------------|--3----------3-----------|--1------------------3--|
----------------------------------|----------3--3--------0--|--1-------1--------1-----1-----1--|--1----------------------|-------3-----3--2-----2-----1-----|-------0-----------------|-------------------------1--------|----------------0--------|--3----3--------------------------|--3----------------------|----------------1-----------------|----------3--------3--L--|
--3--3--3--3--3--3--3--3--3--x----|--5--5--5--5--x----3--------|--5--5--5--5--5--5--5--5--5--x----|--6--6--6--6--x----4b-------|-----------------------------x----|--------------x----------0--|-----------------------------x----|--------------x-------------|----------------------------------|----------------------------|----------------------------------|----------------------------|
--0-----------------3--------|-----3--1-----3--1--------|-----------1-----------------|-----------1--------1-----|--------3-----3--3--------1--|--2--------------------1--|--------2--------------2-----|--------3-----------3-----|--3--------------------------|--------------------------|-----3-----------3-----------|--1-----------1-----------|
--------3--1----------------------|-----3--------1--1--------|-----1--------3b--3--1-----3b--1--|--------------------------|--2---------------------2---------|--------------------------|-----------3----------------------|--------2-----------0-----|----------------------------------|--3-----------2-----------|--1-------------------------------|-----------3-----------3--|
-------3--3-----3--------|-----1--1-----1--3--------|--1----------------------|-----------3--------------|-------------------------|-----------------------1--|-------2-----------2-----|--------0-----------0-----|--3----------3-----------|--2-----------------------|----------------------3--|--------------3-----------|
--------3--1---------------|-----------------------------------|-----1--------3b--3--1--1--|-----------1--------1-----1-----1--|--2------------------------|--------3-----3--2-----2-----1-----|--------3------------3-----|--------------------------1--------|---------------------------|--3-----3--------------------------|--1-----------1------------|-----3-----------1-----------------|
--------3--3------------|--0----------------||--1---------------------|--1----------------||-----0------------------|--0----------------||--------------0---------|--2----------------||--3---------------------|--3----------------||--------3----------3----|-------------------||
************************************ | / slide up | \ slide down | h hammer-on | p pull-off | ~ vibrato | + harmonic | x Mute note | b Bend | pb Pre-bend | br Bend release | pbr Pre-bend release | brb Bend release bend ************************************
Please rate this tab:
x1.0