Blind Guardian - Guardian Into The Storm tab

Into The Storm
Blind Guardian

(V 2.0)

Tabbed by Mark Floyd  ljbarbeau@videotron.ca
inspired by a tab originally made by : Axel Hallingbäck
(Thanx for sharing your wisdom with me :)

Tune to Eb (one Half step down)

Intro                                   Ending 1

C#5|--------------------------------------|------------------||--------------------------------------|--10----10-9------||------7-----5--------8p7-7-7p5--------|----7--------7--5-||------------------------------6h7-----|------------------||-5-5----5-5---5-5---------------------|------------------||--------------------------------------|------------------|P.M[_] [_] [_]
Repeat Part 1 2x and then Ending 2 P.M[__________] < F#5 B5 C#5............ C#5
|----------------------------------------||-10----10--10---------------------------||---7----------7-5-7---TREMOLO-DOWN-&-UP-||----------------------------------------||----------------------------------------||----------------------------------------|
Verse 1 (w/ Riff 1 4X) Give it to me, I must have it precious treasure I deserve it
Riff 1|-------------||---------6---||-----5---5-5-||--7----6-----||--5----------||-------------|
| |
| Repeat 2X|-------------| while Gtr 1. plays Riff 1 2nd guitar Plays:|-------------||-------------||--7-7------5-||--5-5------3-||-------------|
Then This, until end of Riff 1 Ab|-3-5-5-5-5-5-5-5-5-5-5-5-5-| P.M[_________________________] Verse 2 (w/ Riff 2 4X) Where can I run How can I hide The Silmarils Gems of treelight Their life belongs to me
Riff 2|---------------------------||--------------8------------||---9---7------7----7-------||----------10---------------||---------------------------||---------------------------|
| | |-5-7-7-7-7-7-7-7-7-7-7-7-7-| (2nd guitar) (Ab) P.M[________________________] Pre Chorus (w/ Riff 2 &3 2X) Oh, It's sweet how the darkness is floating around...
Riff 3 (Gtr 1.)|-----------16-15-||-/17-15----------||--------17-------||-----------------||-----------------||-----------------|
Chorus We are following the will of the one...
Gtr 1. rake|-------------------||---------------------------------------------------||-12----12-11-------||---------------------------------------------------||-------------------||-:--------------7---------12-14-16-12-14-16p14-16~-||----14-------14p12-||----10----------7--------12------------------------||-------------------||-:--10----------5----------------------------------||-------------------||-----8---------------------------------------------|
| |
| Gtr 2.|-------------------||---------------------------------------------------||-------------------||---------------------------------------------------||-9-----------------||-:--------------7---------9------------------------||-9-----------------||----10----------7---------9------------------------||-7-----------------||-:--10----------5---------7------------------------||-------------------||-----8---------------------------------------------|
... Through the dark ages and into the storm
Both Gtrs Repeat 1X Gtr 1. Only|------------------------------------------|| |------------||------------------------------------------|| |------------||------------------------7---------------:-|| |-------16~--||------------10----------7-----------7-----|| |---/14------||------------10----------5-----------7---:-|| |------------||-------------8----------------------5-----|| |------------|
Lord I'm mean!!! Bridge (w/ Riff 5 4X)
Riff 5 .|-------------------------------| Gtr 1|-------------------------------||-------------------------------||-------------------------------||-7-----10p9-10----------9p7p5--||---0-0----------0-0-0-0--------|
| P.M [_____]| .|-------------------------------| Gtr 2|-------------------------------||-9-----12p11-12---------11p9p7-||---0-0----------0-0-0-0--------||-------------------------------||-------------------------------|P.M [_] [_____]
N.H (Dive Bomb With tremolo) Db|--12--| Verse 3 (w/ Riff 2 4X Then Riff 6 4X) Blackheart show me, what you hold in your hand, I still hunger for more Release me From my pain Give it to meee!!!
Riff 6|---------------------------||---------------10----------||--11---9-------9----9------||----------12---------------||---------------------------||---------------------------|
| | |-7-9-9-9-9-9-9-9-9-9-9-9-9-| (2nd guitar) P.M[________________________] Interlude (w/ intro Riff 4X) How I need it! How I need it!!! HOW I NEED IT!!!!!! Repeat Verse 2 (w/ Riff 2 4X) Where can I run How can I hide The Silmarils Gems of treelight Their life belongs to me Pre Chorus (w/ Riff 2 &3 2X) Chorus
Solo . Repeat 3X||---------------------------|------------------------||---------------------------|------------------------||-----16-16~-15~-15h16p15--:|-/15---/15---/15---/15--||-/14-----------------------|------------------------||--------------------------:|------------------------||---------------------------|------------------------
||
|| . Repeat 3X||---------------------------|------------------------||---------------------------|------------------------||--------------------------:|------------------------||------9--9~-8~--8h9p8------|-9-----10-----11-----12-||-/7-----------------------:|---7-7----7-7----7-7----||---------------------------|------------------------ P.M [_] [_]
. . . ---------------------------------------------------------------------------- --- ---------------------------------------------------------------------------- --- ----16-15h16p15-14\12-14b(16)r14-12--------16-15-15h16p15--15---------------
-16-/14-------------------------------14---17---------------17--17-16-14--16--17----------------------------------------------------------------------------------------------------------------------------------------------------------------
. . .---------------------------------------------------------------------------------------------------------15p15p12-------16p15p12-------16p15p12---12-13--------------14-------------14-------------14-------------------------------------------------------------------------------------------------------------------
----------------------------------------------------------14-15-17--------------------------------15-16---------15---16-15h16p15-----------13-14------------------------------17-16-14----------------------------------------------------------------------------------------------
----------------------------------------------------------------------------------------10--------------------------------12-11h12p11-14-12---12-11-9---------------12-14-16---------------------------------13-14-16---------------------------------------------------------------------------------------------
-------------------------------------------------------------------------------------------------------------------------------------------------------------------12-15-14h15p14----------------------------13-14-15----------------16-14-13-14----14----------------------------------------------15----15-14---
--------------------------------------------------------------------------------12-11-11h12h14-12-11-----------11h12p11-------11h12p11----------------------12-11--------------11-14------------------------------------------------------------------------------------------------------------------------------------------------------
Both Guitars--------------------------------|-12-10h12p10p9--------------|-12-11h12p11----11--------------|---------------11----11-----|-------------12----12-11----11--|------------------12----11--|-------------------------14-----|----------------------------|--------------------------------|----------------------------|--------------------------------|----------------------------|
--------------------------------9~---------------------------------------------------12~-9~----------11~-10~----------11~-10~----------------10--11~---------12~-11-9---------11~---------------------------------------------------------------------------------------------------------------
--------------------------------------------------------------------------------------------------------------------------------------------------------11-10h11p910p8\6~-----14-13h14p13p11----------12-11h12p11p9\7~---------------------------------------15-12------------------------------------------------------------------------------------------------------------------------------------
Slow Bend ------------------------------------------14p12-----------------------------
------------------------------------------------14p12-14----------10--12b(14)
--11p9-11~--13p11-13~--14p13-14~-16p14-16~---------------13p11-13------------
- ---------------------------------------------------------------------------- - ---------------------------------------------------------------------------- - ---------------------------------------------------------------------------- -
-------------------/12b(13)r12-10-------------------------/14b(15)r14-12-10~---/13b(14)r13-11-9~------------------------------------------------------------------------------------------------------------------------------------------
--14p12-------------------------------------------||--------14p12-14---------10-12-12b(14)r12-10-19~--||----------------13p11-13---------------------12~--||--------------------------------------------------||--------------------------------------------------||--------------------------------------------------||
intro 2X Then Ending 3
F#5 B5|------------------||-10----10-10------||---7---------7-5--||------------------||------------------||------------------|
Verse 4 (w/ Riff 1 4X) I did my part Now it's your turn And remember What you've promised Repeat Verse 2 (w/ Riff 2 4X) Where can I run How can I hide The Silmarils Gems of treelight Their life belongs to me Pre Chorus (w/ Riff 2 &3 2X) Chorus Bridge (w/ Riff 5 2X) Outro (w/Riff 7 2X)
Riff 7 Repeat 3X||-------------------|-------------------------------||||-------------------|-------------------------------||||:----------/14-13-:|--9-x-x-x-11-x-x-x-12-x-x-x-16-||||--14-12-14---------|-10-x-x-x-12-x-x-x-14-x-x-x-14-||||:-----------------:|-------------------------------||||-------------------|-------------------------------||
Repeat 3X||------------------------------||||------------------------------||||:-12-11h12p11p9h11p9---------:||||----------------------13-10---||||:----------------------------:||||------------------------------||
Finale|------------------|||------------------|||---------------9~-|||-------9--10---9~-|||-11-12-10-11------|||-12-13------------||
Mark Floyd ljbarbeau@videotron.ca
Tap to rate this tab
 
# A B C D E F G H I J K L M N O P Q R S T U V W X Y Z