Blind Guardian - The Bards Song In The Forest tab

BLIND GUARDIAN                                          
Bard΄s Song - In The Forrest         

This is the 2nd guitar, a huge solo       


                                                                    
E ------------|--------------|--------------|----------------------|B ------------|--------------|--------------|--13----15--13--12----|G ------------|--------------|--------------|----------------------|D ------------|--------------|--------------|----------------------|A ------------|--------------|--------------|----------------------|E ------------|--------------|--------------|----------------------|
--------------------|----------------------|--------------------|--12----------------|------------12--13----|--12----13----15----|--------14----12----|--12----14------------|--------------------|--------------------|----------------------|--------------------|--------------------|----------------------|--------------------|--------------------|----------------------|--------------------|
----------------------|--------------------|----------------------|--13----15--13--12----|--12----------------|------------12--13----|----------------------|--------14----12----|--12----14------------|----------------------|--------------------|----------------------|----------------------|--------------------|----------------------|----------------------|--------------------|----------------------|
--12--------------|------------------|--------------------|------------------|----------15------|--13------15------|--------12-13-12----|------------------|------------------|------------------|--------------------|----14------12----|------------------|------------------|--------------------|------------------|------------------|------------------|--------------------|------------------|------------------|------------------|--------------------|------------------|
----------------------|--------------------------|----------------------------|----------------------|--13--------15---13---12--|---------------12-----------|--12-14---------------|--------------------------|--12-----12-14----14--------|----------------------|--------------------------|----------------------------|----------------------|--------------------------|----------------------------|----------------------|--------------------------|----------------------------|
--------------------------|---------------------------------|--13--------15---13---12--|---------------12-13-12----------|--------------------------|--12-----12-14----------12-14----|--------------------------|---------------------------------|--------------------------|---------------------------------|--------------------------|---------------------------------|
--12---13---15--17---15---13-12-|----------------13-12---------|--------------------------------|--15---13---15--------15------|--------------------------------|------------------------------|--------------------------------|------------------------------|--------------------------------|------------------------------|--------------------------------|------------------------------|
--------------------------|---------------------------------|--13----12----10----12----|--13---13-12---12-10-----12------|--------------------------|----------------------9------12--|--------------------------|---------------------------------|--------------------------|---------------------------------|--------------------------|---------------------------------|
--------------12----------|--13---12-----12----------|--15------15------13------|----------15------13------|------14--------------14--|----------------------14--|--------------------------|--------------------------|--------------------------|--------------------------|--------------------------|--------------------------|
--13--12-13-12-----12----------|--13---12-----17----15-17-|---------------15------13------|----------15--------------|---------------------------14--|--------------------------|-------------------------------|--------------------------|-------------------------------|--------------------------|-------------------------------|--------------------------|
--15----13-12--------12-13-15-|--17-15-13-12-----------------|--------------15--15----------|--------------15----------13--|------------------------------|-----------------12-14--------|------------------------------|------------------------------|------------------------------|------------------------------|------------------------------|------------------------------|
--------------------|----------------------|--12----------13---12-----|--12----------------|------13--15------15--|------13--------------15--|--------12--14------|--------------14------|----------14--------------|--------------------|----------------------|--------------------------|--------------------|----------------------|--------------------------|--------------------|----------------------|--------------------------|
--12----------13--12-13-12-----|--12----------13---12-----|--13----------13--|------13-------------------15--|------13--------------15--|------------------|----------14-------------------|----------14--------------|------------------|-------------------------------|--------------------------|------------------|-------------------------------|--------------------------|------------------|-------------------------------|--------------------------|------------------|
--12------------------------|----------------------------------|------15--13--15--12--------|--13-12-10--8-10------------------|----------------------------|------------------9--10------9----|----------------------------|--------------------------12------|----------------------------|----------------------------------|----------------------------|----------------------------------|
-----------10-12-----------------------|------------------------10-12----|--10-12-13----------13-12-10--8-10-----|---------------10-12-13----------|------------------------------------9--|--10------9----------------------|---------------------------------------|-------12------------------------|---------------------------------------|---------------------------------|---------------------------------------|---------------------------------|
----------------12------------|--------------------------12--------------|--10---12---13-------12-------|------------------------------15-13-15-13-|--------------------------12--|-------12---14--12-14-12------------------|------------------------------|--15--------------------------------------|------------------------------|------------------------------------------|------------------------------|------------------------------------------|
------------12-------15--13-12-13-12-|-------13---17--15--------|--13---15-------15-------------------|--15----------------------|-------------------------------------|--------------------------|-------------------------------------|--------------------------|-------------------------------------|--------------------------|-------------------------------------|--------------------------|
------------12-----------------|----------------------------|--13---15-------12-------12-13-|--12------------------------|-------------------------------|-------14---12--12-14-------|-------------------------------|----------------------------|-------------------------------|----------------------------|-------------------------------|----------------------------|
--12---13---15--15-----------------|----------------------------|---------------------15---12-13-12-|--12------------------------|-----------------------------------|---------14-12--12-14-------|-----------------------------------|----------------------------|-----------------------------------|----------------------------|-----------------------------------|----------------------------|
--------------------------|---------------------------------------|--13--------15---13---12--|---------------12-13-12-13-12----------|--------------------------|--12-----12-14----------------12-14----|--------------------------|---------------------------------------|--------------------------|---------------------------------------|--------------------------|---------------------------------------|
--12---13---15--17---15---13-12-|----------------13-12---------|--------------------------------|--15---13---15--------15------|--------------------------------|------------------------------|--------------------------------|------------------------------|--------------------------------|------------------------------|--------------------------------|------------------------------|
----------------------------|--------------12----------|--13----12----------12------|--15------15------13------|--------------14--------12--|------14--------------14--|----------------------------|--------------------------|----------------------------|--------------------------|----------------------------|--------------------------|
--13---12-----12----------|--13--12-13-12-----12----------|----------15------13------|---------------15------13------|----------------------14--|---------------------------14--|--------------------------|-------------------------------|--------------------------|-------------------------------|--------------------------|-------------------------------|
--13---12-----17----15-17-|--15----13-12-----10-12-13-15-|----------15--------------|--------------15--------------|--------------------------|------------------------------|--------------------------|------------------------------|--------------------------|------------------------------|--------------------------|------------------------------|
--17-15-13-12-----------------|--------------------|----------------------|--------------15----------13--|--12----------------|------13--15------15--|-----------------12-14--------|--------12--14------|--------------14------|------------------------------|--------------------|----------------------|------------------------------|--------------------|----------------------|------------------------------|--------------------|----------------------|
--12----------13---12-----|--12----------13--12-13-12-----|------13--------------15--|------13-------------------15--|----------14--------------|----------14-------------------|--------------------------|-------------------------------|--------------------------|-------------------------------|--------------------------|-------------------------------|
--12----------13---12-----|--17----15-17-15----13-12-|----------------|------13--------------15--|--------------------------|--15------------|----------14--------------|--------------------------|----------------|--------------------------|--------------------------|----------------|--------------------------|--------------------------|----------------|--------------------------|--------------------------|----------------|
----------------------|----------------------------|------------------------|------------12----12--|--12-13-13--13--13--12------|------------12-13-------|--14----14------------|------------------------12--|--12-14-----------14----|----------------------|----------------------------|------------------------|----------------------|----------------------------|------------------------|----------------------|----------------------------|------------------------|
--------------------|----------------------------|--13------15----12--|--12-13----12---------------|--------------------|--------14----12-14---------|--------------------|--------------------14------|--------------------|----------------------------|--------------------|----------------------------|
------------------------------|------------------------|---------13-12------------12--|------------------13-12-|--14--14-------14-12---14-----|--14--------------------|------------------------------|--------14--14----------|------------------------------|------------------------|------------------------------|------------------------|
--------------------------|--12----------------------|--------12--------------|--13---12-13--15---13-15--|----------12-13--------12-|--13--------15---13-12--|--------------------------|----------------14--14----|------------------------|--------------------------|--------------------------|------------------------|--------------------------|--------------------------|------------------------|--------------------------|--------------------------|------------------------|
----------------------------|----------------------------|--13--13-12-----------------|-------13-12------------12--|------------14-----------12-|--14---------14-12---14-----|----------------14----14----|----------------------------|----------------------------|----------------------------|----------------------------|----------------------------|
--------------------------|------------------|--------------------12-12-12-----|----------12-13--------12-|--13------15------|--12-13-12----12-----------------|--14------------14--14----|------------------|-----------14--------------------|--------------------------|------------------|---------------------------------|--------------------------|------------------|---------------------------------|--------------------------|------------------|---------------------------------|
Tabbed by Ed_Hunter
Tap to rate this tab
 
# A B C D E F G H I J K L M N O P Q R S T U V W X Y Z