Blink 182 - Aliens Exist Live tab

Aliens Exist Live from The Mark, Tom, and Travis Show
Tabbed by Shepp
Standard Tuning

Intro-------------------------------------------|-------------------------------------------|---4-4-4-4-4-4--6-6-6-6--8-8-8-8~----------|---4-4-4-4-4-4--6-6-6-6--8-8-8-8~----------| pick slide at 00:23---2-2-2-2-2-2--4-4-4-4--6-6-6-6~----------|-------------------------------------------| . . . . . . . . . . . . . . Palm Mute
-----------------------------------------|-----------------------------------------|---4-------------------------------------|---4-x6--2-----6-----2-------------------|x2---2-----2-x6--6-x6--2-x6----------------|---------0-----4-----0-------------------|
Verse 1---------------------------------------------|---------------------------------------------|---444444------------------------------------|---444444-444444-666666-222222---------------|x2---222222-444444-666666-222222---------------|----------222222-444444-000000---------------|
...... ...... ...... ......---------------------------------------------|---------------------------------------------|---444444-666666-----------------------------|---444444-666666-666666-222222---------------|---222222-444444-666666-222222---------------|-----------------444444-000000---------------|
...... ...... ...... ......---------------------------------------|---------------------------------------|---444444------------------------------|---444444-444444-666666----------------|---222222-444444-666666----------------|----------222222-444444----------------| ...... ...... ......
Chorus---------------------------------------|---------------------------------------|---4-------------4---------------------|---4-x16--4------4-x16--4--------------|---2------4-x16--2------4-x16----------|----------2-------------2--------------|
--------------------------------------------------------|--------------------------------------------------------|--------------------------------------------------------|---1-1---1-1---1-1---1-1-----2-2---2-2---2-2---2-2------|x2-------2-----2-----2------2------2-----2-----2-----2----|--------------------------------------------------------|
. . . . . . . . . . . . . . . . . . . . . . . . .-----------------------------------------|-----------------------------------------|--------------------4~-------------------|---4~------2~-------4~----4~------2------|---4~------2~-------2~----4~------2------|---2~------0~-------------2~------0------|
Intro-----------------------------------------|-----------------------------------------|---4-------------------------------------|---4-x6--2-----6-----2-------------------|x2---2-----2-x6--6-x6--2-x6----------------|---------0-----4-----0-------------------|
Verse 2---------------------------------------------|---------------------------------------------|---444444------------------------------------|---444444-444444-666666-222222---------------|x2---222222-444444-666666-222222---------------|----------222222-444444-000000---------------|
...... ...... ...... ......---------------------------------------------|---------------------------------------------|---444444-666666-----------------------------|---444444-666666-666666-222222---------------|---222222-444444-666666-222222---------------|-----------------444444-000000---------------|
...... ...... ...... ......----------------------------------------|----------------------------------------|---444444-------------------------------|---444444-444444-666666-2---------------|---222222-444444-666666-2---------------|----------222222-444444-0---------------| ...... ...... ......
Chorus---------------------------------------|---------------------------------------|---4-------------4---------------------|---4-x16--4------4-x16--4--------------|---2------4-x16--2------4-x16----------|----------2-------------2--------------|
--------------------------------------------------------|--------------------------------------------------------|--------------------------------------------------------|---1-1---1-1---1-1---1-1-----2-2---2-2---2-2---2-2------|x2-------2-----2-----2------2------2-----2-----2-----2----|--------------------------------------------------------|
. . . . . . . . . . . . . . . . . . . . . . . . .-----------------------------------------|-----------------------------------------|--------------------4~-------------------|---4~------2~-------4~----4~------2------|---4~------2~-------2~----4~------2------|---2~------0~-------------2~------0------|
Bridge-----------------------------------------------|-----------------------------------------------|---4-4-4-4-4-4-4-4-4-4-4-4-4-4-4-4-4-4-4-4-4-4-|---2-2-2-2-2-2-2-2-2-2-2-2-2-2-2-2-2-2-2-2-2-2-|---2-2-2-2-2-2-2-2-2-2-2-2-2-2-2-2-2-2-2-2-2-2-|-----------------------------------------------|
-------------------------------------------------|-------------------------------------------------|---8------6------9------8------------------------|---8-x16--6-x16--9-x16--8-x16--------------------|---6------4------7------6------------------------|-------------------------------------------------|
--------------------------------------------------|--------------------------------------------------|-------------------4-----6------------------------|-6-----4-----2-----4-x4--6-x4---------------------|x2-6-x8--4-x8--2-x8--2-----4------------------------|-4-----2-----0------------------------------------|
Chorus---------------------------------------|---------------------------------------|---4-------------4---------------------|---4-x16--4------4-x16--4--------------|---2------4-x16--2------4-x16----------|----------2-------------2--------------|
--------------------------------------------------------|--------------------------------------------------------|--------------------------------------------------------|---1-1---1-1---1-1---1-1-----2-2---2-2---2-2---2-2------|x2-------2-----2-----2------2------2-----2-----2-----2----|--------------------------------------------------------|
. . . . . . . . . . . . . . . . . . . . . . . . .---------------------------------------------------------|---------------------------------------------------------|--------------------4~---------------------4~------------|---4~------2~-------4~----4~------2~-------4~------------|---4~------2~-------2~----4~------2~-------2~------------|---2~------0~-------------2~------0~---------------------|
Tap to rate this tab
 
# A B C D E F G H I J K L M N O P Q R S T U V W X Y Z