Blizzard – Bloody Blizzard tab

Bloody Blizzard
Blizzard  -  Under the Sun  (  1994  )

--------------------------------------------------------------|--------------------------------------------------------------|--------------------------------------------------------------|----9-------9---------9-------9-------5--7--9--12--9--9-------|--0h7--7-7--7--7-7--0h7--7-7--7--0-0--3--5--7--10--7--7--7-7--|--------------------------------------------------------------|
--|--12----12--12-----12--12-|-12--12-12--12-12---12---------|--|--12----12--12-----12--12-|-12--12-12--12-12---12---------|--|--12----12--12-----12--12-|-12--12-12--12-12---12---------|--|--10----10--10-----10--10-|-12--12-12--12-12---12---------|--|--------------------------|-10--10-10--10-10---10---------|--|--------------------------|-------------------------------|
fill 1|----|-----------------|-------------|-----------------------||----|-----------------|-------------|-----------------------||-7--|-5----7----5-----|-------------|-------------7---------||----|--------------7--|--5---7----9-|-------5-7/9---9-------||----|-----------------|-------------|--5h7------------------||----|-----------------|-------------|-----------------------|
fill 2 fill 3----|-----------------------------| -------|---------------------|----|-----------------------------| -------|---------------------|----|------------------7------7---| -7-7/9-|---------------------|----|------5---7-/-9-----7/9------| -------|--7/9-----7-----5----|--5-|--7--------------------------| -------|---------------------|----|-----------------------------| -------|---------------------|
*4*|-5---5-5----5-|--5--5----5--5-|-2--0---2-|-0----2--0------||-5---5-5----5-|--5--5----5--5-|-3--2---3-|-2----3--2------||-5---5-5----5-|--5--5----5--5-|-2--2---2-|-2----2--2------||-5---5-5----5-|--5--5----5--5-|-0--0---0-|-0----0--0------||-7---7-7--7-7-|--7--7----7--7-|----------|----------------||-5---5-5--5-5-|--5--5----5--5-|----------|----------------|
Solo:
fig 1 2x|------------|------------------|--------------------------||-10/12-10-8-|-10/12-10-8-------|--7-----10-7--------------||------------|--------------9---|----9-7------7-9~~--------||------------|------------------|--------------------------||------------|------------------|--------------------------||------------|------------------|--------------------------|
| | | ||------------|------------------|--------------------------||---/3--2----|/3----------------|--------------------------||---/4--2-4--|/4----2-----------|--------2-----------------||---------5--|--------5---2-----|--4-2-0---4-0-2-----------||------------|------------------|--------------------------||------------|------------------|--------------------------|
fig 2|-------------|------------|-10^--10-7---------|-----------||-10^p8-10----|-10^p8-10---|-----------10^p8---|-----------||----------9--|----------9-|-----------------9-|---9-------||-------------|------------|-------------------|-----------||-------------|------------|-------------------|-----------||-------------|------------|-------------------|-----------|
fig 3|--------------|---------------|--10^--10-7---------|------||-10^-^-^p8--8-|-10^-^-^-^-^p8-|------------10^p8---|------||--------------|---------------|------------------9-|--9---||--------------|---------------|--------------------|------||--------------|---------------|--------------------|------||--------------|---------------|--------------------|------|
| | | | ||-15^-^-^p12---|-15^-^-^-^-^p12|--------------------|------||--------------|---------------|--------------------|------||--------------|---------------|--------------------|------||--------------|---------------|--------------------|------||--------------|---------------|--------------------|------||--------------|---------------|--------------------|------|
1:***************** 2:************-------------------------|------------------||-------------------|-------------------------|------------------||-------------------|-------------------------|------------------||-------------------|--7--7--5--7---7--5--7-7-|-9--7--9--7--9--7-||-9-7-9-7-5-7-4-----|-------------------------|-7--5--7--5--7--5-||-7-5-7-5-3-5-2-----|-------------------------|------------------||-------------------|
----------------------------------|----------------------------------|----------------------------------|----------------------------------|--2-2-5-4-5-4-5-2---2-5-4-5-6-----|--0-0-3-2-3-2-3-0---0-3-2-3-4-----|
---------------------------------------------|---------------------------------------------|---------------------------------------------|--9--9--9---7---9--9--9---7--5--7--4---------|--7--7--7---5---7--7--7---5--3--5--2---2/5---|---------------------------------------------|
fig Whatever w/ solo--------------------------------------|--------------------------------------|--------------------------------------|--------------------------------------|-----0--2--2--2p0-----2--2-----0------|--2----------------2--------2---------|
Outro Solo:|------------|----------7----7-----------------------------||------------|-----------------10^^-10^^-10^^-10^^^-10^^^--||-----7------|------7-9^--9^-------------------------------||-7h9---9-7--|--7h9----------------------------------------||------------|---------------------------------------------||------------|---------------------------------------------|
|---------------------------------|------------------------||-7-------------------------------|------------------------||---(7)-9p7---7-7h9--7----7-------|------------------------||-----------9----------9----9p7---|-7-7h9-7h9-7h9----------||-------------------------------9-|------------------------||---------------------------------|------------------------|
|-----------------------|----------------------------------||-----------------------|----------------------------------||-----------------------|----------------------------------||--(9)\-------/------\--|----------------------------------||------\-----|-7p5----|-|-5--------------------------------||-------\-----\----7-/--|---------7------------------------|
Please rate this tab:
x1.0