Bloc Party - Positive Tension tab

Band: Bloc Party
Song: Positive Tension
Album: Silent Alarm
Tuning: Standard
Tabbed by: Cody
Direct any questions to xyour_favorite_wordsx@yahoo.com
American Kids can tab Bloc Party too!

|---------------6----------------------------||--------------------------------------------|:58-1:10 |-8~/7-8/7-8/7-----8/7-8/7-8/7---------------||-------------------------------8------------| x2|--------------------------------------------||--------------------------------------------|
|--------------------------||--------------------------||--------------------------| 1:22-1:42|---6~~---------------3~~--| x4|---6~~---------------3~~--||---4~~---------------1~~--|
|---------------------||---------------------||--12/11-12/11-13-----|1:46-1:58|-----------------12--| x4|---------------------||---------------------|
|------------6-----------------------------6--------------------||---------------------------------------------------------------||-8-8-88--7-----8-8-88--7-----8~/7-8/7-8/7-----8/7-8/7-8/7------| 1:58-2:10|--------------------------8--------------------------------8---||---------------------------------------------------------------||---------------------------------------------------------------|
|----------------------------------------------------||----------------------------------------------------||-----------8/7-8/7-8/7-------------8/7-8/7-8/7------| 2:10-2:31|-6~~--3~~--------------8-6~~--3~~--------------8----| x2|-6~~--3~~----------------6~~--3~~-------------------||-4~~--1~~----------------4~~--1~~-------------------|
|--------------------||--------------------||--------------------| 2:31-2:34|-10--10-1010--------||--------------12----||--------------------|
|-----------------------------------------||-----------------------------------------| |---5-5-5------------------------7-7-7-7--| |---5-5-5--5-5-5--6-6-6--3-3-3---7-7-7-7--| |---3-3-3--5-5-5--6-6-6--3-3-3---5-5-5-5--||----------3-3-3--4-4-4--1-1-1------------|
| | x7|-----------------------------------------| |-----------------------------------------| |---5-5-5------------------------6-6-6-6--| |---5-5-5--5-5-5--6-6-6--3-3-3---6-6-6-6--| |---3-3-3--5-5-5--6-6-6--3-3-3---4-4-4-4--| |----------3-3-3--4-4-4--1-1-1------------|
|-----------------------------------------||-----------------------------------------| |---5-5-5------------------------7-7-7-7--| |---5-5-5--5-5-5--6-6-6--3-3-3---7-7-7-7--| |---3-3-3--5-5-5--6-6-6--3-3-3---5-5-5-5--||----------3-3-3--4-4-4--1-1-1------------|
|--------------------| |--------------------| |---5-5-5------------| |---5-5-5--5-5-5--6--| |---3-3-3--5-5-5--6--| |----------3-3-3--4--|
|--------------------------------------------------||--------------------------------------------------||--12----12-15-13-12---12----12--15-13-12----------||-----13------------------13-----------------------||--------------------------------------------------||--------------------------------------------------|
|-11---13-----------------------------||------------15-16--------------------||---------------------15-15-13-15-12--||-------------------------------------||-------------------------------------||-------------------------------------|
|------------------------------------------------------||---------------------------13-------------------------||-12--10-10-8-8--10-----15------13--15--12--13------12-||-----------------------------------------------15-----||------------------------------------------------------||------------------------------------------------------|
|----------------------------------------------------||----------------------------------------------------||-----------------------------10---------------------||-13-12--10-10-10-12-10-13-10----10--10-10-12--------||----------------------------------------------------||----------------------------------------------------|
|--------------------------------------------------||------------------15~~----------------------------||----------10------16~~----------------------------||-10-13-10----10-----------------------------------||--------------------------------------------------||--------------------------------------------------|
Tap to rate this tab
 
# A B C D E F G H I J K L M N O P Q R S T U V W X Y Z