Blood Brother – Fucking Greatest Hits tab

THE BLOOD BROTHERES
FvCKINGS GREATEST HITS
FROM THE ALBUM BURN PIANO ISLAND BURN
TABBED BY: XDESPAIRFACTOR

TUNING: EBGDAE

|------------------------||------------------------||------------------------||------------------------||--5---1---5-5-8-8-8-----||----3---1-3-3-6-6-6-----|
|---------||--12-12--||--12-12--||-- 0- 0--||---------||---------|
|-----------------||-----------------||-----------------||-----------------||-5-5-8-8-8-------||-3-3-6-6-6-------|
|------------------------||------------------------||------------------------||------------------------||--5---1---5-5-8-8-8-----||----3---1-3-3-6-6-6-----|
|---------||--12-12--||--12-12--||-- 0- 0--||---------||---------|
|-----------||-----------||-----------||-----------||--5-----1--||----3-1----|
|---------||--12-12--||--12-12--||-- 0- 0--||---------||---------|
|-----------------------------------------------------||-----------------------------------------------------||--7-7-7-7---3--3--3----------------------------------||--7-7-7-7---3--3--3--5--5-5-5-5-5-5--5--5-5-5-5-5-5--||--5-5-5-5---1--1--1--5--5-5-5-5-5-5--5--5-5-5-5-5-5--||---------------------3--3-3-3-3-3-3--3--3-3-3-3-3-3--|
|---------||--12-12--||--12-12--||-- 0- 0--||---------||---------|
|-----------------||-----------------||-----------------||-----------------||-5-5-8-8-8-------||-3-3-6-6-6-------|
|------------------------||------------------------||------------------------||------------------------||--5---1---5-5-8-8-8-----||----3---1-3-3-6-6-6-----|
|---------||--12-12--||--12-12--||-- 0- 0--||---------||---------|
|-----------||-----------||-----------||-----------||--5-----1--||----3-1----|
|---------||--12-12--||--12-12--||-- 0- 0--||---------||---------|
|-----------------------------------------------------||-----------------------------------------------------||--7-7-7-7---3--3--3----------------------------------||--7-7-7-7---3--3--3--5--5-5-5-5-5-5--5--5-5-5-5-5-5--||--5-5-5-5---1--1--1--5--5-5-5-5-5-5--5--5-5-5-5-5-5--||---------------------3--3-3-3-3-3-3--3--3-3-3-3-3-3--|
|-------||-------||--7\3--||--7\3--||--5\1--||-------|
|-----------------------------------------------------||-----------------------------------------------------||--7-7-7-7---3--3--3----------------------------------||--7-7-7-7---3--3--3--5--5-5-5-5-5-5--5--5-5-5-5-5-5--||--5-5-5-5---1--1--1--5--5-5-5-5-5-5--5--5-5-5-5-5-5--||---------------------3--3-3-3-3-3-3--3--3-3-3-3-3-3--|
Please rate this tab:
x1.0