Blood Brother - Love Rhymes With Hideous Car Wreck tab

----------------------------------------------------------------------------
	  Love Rhymes With Hideous Car Wreck - The Blood Brothers
----------------------------------------------------------------------------


Guitar I - (E A D G B E) 
Guitar II - (E A D G B E)




 Intro:

  Guitar I:

|-------------------|--------------|---------------||-------------------|--------------|---------------||-------------------|--------------|---------------||-------------------|--------------|---------------||-------------------|--------------|---------------||-11----11-11----11-|-10\----------|-3----3-3----3-|
|---------------|--------------------|-------||---------------|--------------------|-------||---------------|--------------------|-------||---------------|--------------------|-------||---------------|--------------------|-------||-3----3-3----3-|-/11----11-11----11-|-10----|
Verse:
|-------------------------|-------------------------||-------------------------|-------------------------||-------------------------|-------------------------||-------------------------|-------------------------||----------------------10-|-10-------------------10-||-11-11-11-11-11-10-11----|----10-10-10-10-10-10----|
|-------------------------|--------------------------||-------------------------|--------------------------||-------------------------|--------------------------||-------------------------|--------------------------||----------------------10-|-10-10-10-10-10-10-10-----||-11-11-11-11-11-10-11----|----------------------10--|
|-------------------------|-------------------------||-------------------------|-------------------------||-------------------------|-------------------------||-------------------------|-------------------------||----------------------10-|-10-------------------10-||-11-11-11-11-11-10-11----|----10-10-10-10-10-10----|
|-------------------------|----------------||-------------------------|----------------||-------------------------|----------------||-------------------------|----------------||----------------------10-|-(10)-10-10-----||-11-11-11-11-11-10-11----|----------------|
|-------------------------|-------------------------||-------------------------|-------------------------||-------------------------|-------------------------||-------------------------|-------------------------||----------------------10-|-10-------------------10-||-11-11-11-11-11-10-11----|----10-10-10-10-10-10----|
|-------------------------|--------------------------||-------------------------|--------------------------||-------------------------|--------------------------||-------------------------|--------------------------||----------------------10-|-10-10-10-10-10-10-10-10--||-11-11-11-11-11-10-11----|--------------------------|
||--------------------------|---------------------------|||o-------------------------|---------------------------|||--------------------------|---------------------------|||--------------------------|---------------------------|||o----------------------10-|-(10)-------------------10-|||--11-11-11-11-11-10-11----|------10-10-10-10-10-10----|
x3|-------------------------|--------------------------|||-------------------------|-------------------------o|||-------------------------|--------------------------|||-------------------------|--------------------------|||----------------------10-|-10-10-10-10-10-10-10-10-o|||-11-11-11-11-11-10-11----|--------------------------||
Chorus:
|-------------------|-------------------|---------------|----------|------||-------------------|-------------------|---------------|----------|------||-------------------|-------------------|---------------|----------|------||-------------------|-------------------|---------------|----------|------||-------------------|-------------------|---------------|----------|------||-11----11-11----11-|-10----10-10----10-|-8----8-8----8-|-6--------|------|
|-------------------|-------------------||-------------------|-------------------||-------------------|-------------------||-------------------|-------------------||-------------------|-------------------||-11----11-11----11-|-10----10-10----10-|
|---------------|----------|--------------||---------------|----------|--------------||---------------|----------|--------------||---------------|----------|--------------||---------------|----------|--------------||-8----8-8-10-8-|-6--------|------6-8-10--|
Verse:
|-------------------------|---------------------------||-------------------------|---------------------------||-------------------------|---------------------------||-------------------------|---------------------------||----------------------10-|-(10)-------------------10-||-11-11-11-11-11-10-11----|------10-10-10-10-10-10----|
|-------------------------|----------------------------||-------------------------|----------------------------||-------------------------|----------------------------||-------------------------|----------------------------||----------------------10-|-(10)-10-10-10-10-10-10-10--||-11-11-11-11-11-10-11----|----------------------------|
|-------------|-------------|-------------|------------------||-------------|-------------|-------------|------------------||-------------|-------------|-------------|------------------||-------------|-------------|-------------|------------------||-10----10----|-10----10----|-10----10----|-10----10---------||-------------|-------------|-------------|-------------10---|
||--------------------------|---------------------------|||o-------------------------|---------------------------|||--------------------------|---------------------------|||--------------------------|---------------------------|||o----------------------10-|-(10)-------------------10-|||--11-11-11-11-11-10-11----|------10-10-10-10-10-10----|
|-------------------------|--------------------------|||-------------------------|-------------------------o|||-------------------------|--------------------------|||-------------------------|--------------------------|||----------------------10-|-10-10-10-10-10-10-10-10-o|||-11-11-11-11-11-10-11----|--------------------------||
Bridge:
||----------------|----------------||---------------|-6----|||o---------------|---------------o||---------------|-6----|||--3------2------|-3------3-------||-3------5------|-7----|||--5------3------|-5------5-------||-5------7------|-8----|||o-5------3------|-5------5------o||-5------7------|-8----|||--3------1------|-3------3-------||-3------5------|-6----|
Guitar II:
||----------------|----------------||---------------|-6----|||o---------------|---------------o||---------------|-6----|||--3------2------|-3------3-------||-3------5------|-7----|||--5------3------|-5------5-------||-5------7------|-8----|||o-5------3------|-5------5------o||-5------7------|-8----|||--3------1------|-3------3-------||-3------5------|-6----|
|-------------|-------------|-------------|--------------||-------------|-------------|-------------|--------------||-------------|-------------|-------------|--------------||-5-----------|-7-----------|-------------|--------------||-------------|-------------|-------------|--------------||---3-0-2-2p0-|---5-3-5-5p0-|-3-3p0-3-5-3-|-2-2p0-2/-----|
|-------------|-------------|-------------|--------------||-------------|-------------|-------------|--------------||-------------|-------------|-------------|--------------||-5-----------|-7-----------|-------------|--------------||-------------|-------------|-------------|--------------||---3-0-2-2-x-|---5-3-5-5-x-|-3-3p0-3-5-3-|-2-2p0-2/-----|
|-------------|-------------|-------------|-------------||-------------|-------------|-------------|-------------||-------------|-------------|-------------|-------------||-5-----------|-7-----------|-------------|-------------||-------------|-------------|-------------|-------------||---3-0-2-2-x-|---5-3-5-----|-3-3p0-3-5-3-|-2-2p0-2-3-5-|
|-------------|-----------------|-------------|-------------|--------||-------------|-----------------|-------------|-------------|--------||-------------|-----------------|-------------|-------------|--------||-5-----------|-7---------------|-------------|-------------|--------||-------------|-----------------|-------------|-------------|--------||---3-0-2-2-x-|---5-3-5--(5)\---|-3-3p0-3-5-3-|-2-2p0-2-3-5-|--------|
Chorus: Guitar I:
||-------------------|-------------|---------------|------------|-------||||o------------------|-------------|---------------|------------|------o||||-------------------|-------------|---------------|------------|-------||||-------------------|-------------|---------------|------------|-------||||o------------------|-------------|---------------|------------|------o||||--11-------(11)-10-|-(10)--------|-8-------(8)-6-|-(6)--------|-------||
|-------------------------|-------------------------||-------------------------|-------------------------||-------------------------|-------------------------||-------------------------|-------------------------||-------------------------|-------------------------||-11-11-11-11-11-11-11-10-|-10-10-10-10-10-10-10-10-|
|-----------------|------------------||-----------------|------------------||-----------------|------------------||-----------------|------------------||-----------------|------------------||-8-8-8-8-8-8-8-6-|-6-6-6-6-6-6-6-6--|
|-----------------|-----------------||-----------------|-----------------||-----------------|-----------------||-----------------|-----------------||-----------------|-----------------||-5-5-5-5-5-5-5-5-|-5-5-5-5-5-5-5-5-| End. Thank you for viewing my tab!
| / slide up | \ slide down | h hammer-on | p pull-off | ~ vibrato | + harmonic | x Mute note ============================================================================
Tap to rate this tab
 
# A B C D E F G H I J K L M N O P Q R S T U V W X Y Z