Bloodlined Calligraphy – Frienemies tab

yo, this is a pretty sick song hurr,
so i hope u like it its like 100% correct in my opinion
any questions or any advice email lazyman_13@hotmail.com
pls give some feedback its my first tab, enjoy


Drop C
btw * = palm mute


Guitar one - verse one 0:00-0:30 |--------------------------------------------| |--------------------------------------------| |--------------------------------------------| play 4x |--------------------------------------------| |-8/--5(14x)-4(14x)-8(14x)-10(14x)-----------| |-8/--0------0------0-------0----------------|
all your excuses all your lies... 0:30-0:34 |---------------| |---------------| |---------------| |---------------| do that how ever many times |-0-------------| |-0-------------|
break downish part 0:34-48 |-------------------------------------------------| |-------------------------------------------------| |-------------------------------------------------| |-------------------------------------------------| 2x |-0(bunch of times)0-0--0(bunch of times)-0-0--0-1| |-0----------------0-0--0-----------------0-0--0-1|
0:48-0:54 |--------------------------------------------| |--------------------------------------------| |--------------------------------------------| |--------------------------------------------| |0-0---------0-0------------------0-0--------| |0-0---8-7b--0-0---8-7b---0--1b---0-0--8-7b--|
0:54-0:56 |--------------------------------------------| |--------------------------------------------| |--------------------------------------------| |--------------------------------------------| |--0-0---0-0-0-------------------------------| |--0-0---0-0-0-------------------------------|
verse two i guess? 0:56|--------------------------------------------||--------------------------------------------||--------------------------------------------||--------------------------------------------||-0-0-0-0--------0-0-0-0---------------------||-0-0-0-0--8-7b--0-0-0-0--8-7b--0-0-1b-------|
|--------------------------------------------||--------------------------------------------||--------------------------------------------||--------------------------------------------||-0-0-0-0--------0-0-0-0---------------------||-0-0-0-0--8-7b--0-0-0-0--8-7b--0-0-11b------|
|--------------------------------------------||--------------------------------------------||--------------------------------------------||--------------------------------------------||-0-0-0-0--------0-0-0-0---------------------||-0-0-0-0--8-7b--0-0-0-0--8-7b--0-0-1b-------|
1:25ish|------------------------------------------------||------------------------------------------------||------------------------------------------------||------------------------------------------------||-0-0-0-0--------0-0---0-0-0---0-0-0-0-----------||-0-0-0-0--8-7b--0-0---0-0-0---0-0-0-0--8-7b-----|
|--------------------------------------------||--------------------------------------------||--------------------------------------------||--------------------------------------------||-0-0-0-0--------0-0-0-0---------------------||-0-0-0-0--8-7b--0-0-0-0--8-7b--0-0-1b-------|
|--------------------------------------------||--------------------------------------------||--------------------------------------------||--------------------------------------------||-0-0-0-0--------0-0-0-0---------------------||-0-0-0-0--8-7b--0-0-0-0--8-7b--0-0-11b------|
|--------------------------------------------||--------------------------------------------||--------------------------------------------||--------------------------------------------||-0-0-0-0--------0-0-0-0---------------------||-0-0-0-0--8-7b--0-0-0-0--8-7b--0-0-1b-------|
|--------------------------------------------||--------------------------------------------||--------------------------------------------||--------------------------------------------||-0-0-0-0---------0-0--0-0--0----------------||-0-0-0-0--8-7b---0-0--0-0--0----------------|
|-------------------------------------------------| |-------------------------------------------------| |-------------------------------------------------| |-------------------------------------------------| |-0(bunch of times)0-0--0(bunch of times)-0-0--0-1| |-0----------------0-0--0-----------------0-0--0-1|
outro 1:41-1:54 |---| |---| |---| bunch of times |---| |-0-| |-0-|
this song may be not even 2 mins but it took like 45 mins to get this all down onto site, i hope everyone enjoys i know its so easy to do by ear, but if ur lazy i did lol thank you - Adam
Please rate this tab:
x1.0