Blur - Theres No Other Way tab

There's No Other Way

Capo 2nd fret - tabbed relative to capo


(Intro)
(0.00-0.18)

|---------------------------------||------------12-10---------5-3--2-||-7/10-10/12-12-10-1/3-3/5-5-2--2-||-7/10-10/12-------1/3-3/5-5------| x4|---------------------------------||---------------------------------|
(Verse 1) (0.18-0.43)
|-2-2--2/0-0---------------------------||-3-3--3/1-1-0h1p0--2-2/5--2-2-----0-1-||-2-2--2/0-0--------2-2/5--2-2-0-2-----||--------2-2--------2-2/5--2-2---------| x6|--------3-3---------------------------||--------------------------------------|
(Chorus 1) (0.43-1.03)
|-2-2--2/3-3-3--1-1-1-1/3-3-3-3/1-1-1-1/3-3-3-3-2-2-2-2-3-2-2-||-3-3--3/3-3-3--1-1-1-1/3-3-3-3/1-1-1-1/3-3-3-3-3-3-3-3-3-3-3-||-2-2--2/0-0-0--2-2-2-2/4-4-4-4/2-2-2-2-2/4-4-4-2-2-2-2-2-2-2-||--------2-2-2--3-3-3-3/5-5-5-5/3-3-3-3-3/5-5-5---------------||--------3-3-3--3-3-3-3/5-5-5-5/3-3-3-3-3/5-5-5---------------||---------------1-1-1-1/3-3-3-3/1-1-1-1-1/3-3-3---------------|
|-2-2--2/3-3-3--1-1-1-1/3-3-3-3/1-1-1-1/3-3-3-3-2-2-2-2--------------------------||-3-3--3/3-3-3--1-1-1-1/3-3-3-3/1-1-1-1/3-3-3-3-3-3-3-3--------------------------||-2-2--2/0-0-0--2-2-2-2/4-4-4-4/2-2-2-2-2/4-4-4-2-2-2-2--5h2p5-2---2-------4h5p4-||--------2-2-2--3-3-3-3/5-5-5-5/3-3-3-3-3/5-5-5------------------3---3/5-5-------||--------3-3-3--3-3-3-3/5-5-5-5/3-3-3-3-3/5-5-5----------------------------------||---------------1-1-1-1/3-3-3-3/1-1-1-1-1/3-3-3----------------------------------|
(Interlude) (1.03-1.11)
|---------------------------------||------------12-10---------5-3--2-||-7/10-10/12-12-10-1/3-3/5-5-2--2-||-7/10-10/12-------1/3-3/5-5------| x2|---------------------------------||---------------------------------|
(Verse 2) (1.11-1.28)
|-2-2--2/0-0---------------------------||-3-3--3/1-1-0h1p0--2-2/5--2-2-----0-1-||-2-2--2/0-0--------2-2/5--2-2-0-2-----||--------2-2--------2-2/5--2-2---------| x4|--------3-3---------------------------||--------------------------------------|
(Chorus 2) (1.28-1.39)
|-2-2--2/3-3-3--1-1-1-1/3-3-3-3/1-1-1-1/3-3-3-3-2-2-2-2--------------------------||-3-3--3/3-3-3--1-1-1-1/3-3-3-3/1-1-1-1/3-3-3-3-3-3-3-3--------------------------||-2-2--2/0-0-0--2-2-2-2/4-4-4-4/2-2-2-2-2/4-4-4-2-2-2-2--5h2p5-2---2-------4h5p4-||--------2-2-2--3-3-3-3/5-5-5-5/3-3-3-3-3/5-5-5------------------3---3/5-5-------||--------3-3-3--3-3-3-3/5-5-5-5/3-3-3-3-3/5-5-5----------------------------------||---------------1-1-1-1/3-3-3-3/1-1-1-1-1/3-3-3----------------------------------|
(Interlude 2) (1.39-2.13)
|---------------------------------||------------12-10---------5-3--2-||-7/10-10/12-12-10-1/3-3/5-5-2--2-||-7/10-10/12-------1/3-3/5-5------| x4|---------------------------------||---------------------------------|
|-2-2--2/3-3-3--1-1-1-1/3-3-3-3/1-1-1-1/3-3-3-3-2-2-2-2-3-2-2-||-3-3--3/3-3-3--1-1-1-1/3-3-3-3/1-1-1-1/3-3-3-3-3-3-3-3-3-3-3-||-2-2--2/0-0-0--2-2-2-2/4-4-4-4/2-2-2-2-2/4-4-4-2-2-2-2-2-2-2-||--------2-2-2--3-3-3-3/5-5-5-5/3-3-3-3-3/5-5-5---------------| x4|--------3-3-3--3-3-3-3/5-5-5-5/3-3-3-3-3/5-5-5---------------||---------------1-1-1-1/3-3-3-3/1-1-1-1-1/3-3-3---------------|
(Chorus 3) (2.13-2.50)
|-2-2--2/3-3-3--1-1-1-1/3-3-3-3/1-1-1-1/3-3-3-3-2-2-2-2-3-2-2-||-3-3--3/3-3-3--1-1-1-1/3-3-3-3/1-1-1-1/3-3-3-3-3-3-3-3-3-3-3-||-2-2--2/0-0-0--2-2-2-2/4-4-4-4/2-2-2-2-2/4-4-4-2-2-2-2-2-2-2-||--------2-2-2--3-3-3-3/5-5-5-5/3-3-3-3-3/5-5-5---------------| x3|--------3-3-3--3-3-3-3/5-5-5-5/3-3-3-3-3/5-5-5---------------||---------------1-1-1-1/3-3-3-3/1-1-1-1-1/3-3-3---------------|
|-2-2--2/3-3-3--1-1-1-1/3-3-3-3/1-1-1-1/3-3-3-3-2-2-2-2--------------------------||-3-3--3/3-3-3--1-1-1-1/3-3-3-3/1-1-1-1/3-3-3-3-3-3-3-3--------------------------||-2-2--2/0-0-0--2-2-2-2/4-4-4-4/2-2-2-2-2/4-4-4-2-2-2-2--5h2p5-2---2-------4h5p4-||--------2-2-2--3-3-3-3/5-5-5-5/3-3-3-3-3/5-5-5------------------3---3/5-5-------||--------3-3-3--3-3-3-3/5-5-5-5/3-3-3-3-3/5-5-5----------------------------------||---------------1-1-1-1/3-3-3-3/1-1-1-1-1/3-3-3----------------------------------|
(Outro) (2.50-3.14)
|-------------------------------------------||-------------------------------------------||-7-7-7-7-7/5-5-5-5-5/2-2/5-5-2-2-5-5-5-5-7-||-7-7-7-7-7/5-5-5-5-5/2-2/5-5-2-2-5-5-5-5-7-| x4|-5-5-5-5-5/3-3-3-3-3/0-0/3-3-0-0-3-3-3-3-5-||-------------------------------------------|
Pretty sure it's more or less accurate, email at michael.beaumont@live.com if you have comments/suggestions
Tap to rate this tab
 
# A B C D E F G H I J K L M N O P Q R S T U V W X Y Z