Bob Marley - No Woman No Cry tab

              No Woman No Cry (arrangé pour une guitare acoustique)                


                                                                 


                                                       
E||----------------------||---------------------------|B||----------------------||---------1-----------0-----|G||----------------------||*-----0-----0-----0-----0--|D||----------------------||*--------------------------|A||-------------0--2-----||---3-----------2-----------|E||----------3--------3--||---------------------------|
-------------------------|--------------------------|--------1----------1-----|--------1-----------------|-----2----------2-----2--|-----0-----0--2-----------|-------------------------|--------------3--2--0-----|--0----------------------|--3--------------------3--|-----------1-------------|--------------------------|
-------------3--1--0------||---------------------------|-------1--------------3---||---------1-----0--1--0-----|----0-----0--------------*||*-----------------------2--|-------------------------*||*-----2-----2--------------|----------------0--2------||---3-----------2-----------|-------------3--------3---||---------------------------|
-------------------------|--------0-----1--0--------|-------------------1-----|--------------------3--1--|----------------2-----2--|-----0-----0--2-----------|-----2-------------------|--------------3-----------|--0----------------------|--3--------------------3--|--------0--1-------------|--------------------------|
--------------------------||--------0--0--3--3--0-----|--------------------------||--------------------------|-------0-----0-----------*||-----0-----------------0--|----2-----2--------------*||--------------------------|----------------0--2------||--3-----------2-----------|-------------3--------3---||--------------------------|
--0-0-0-0------------------|--------0-0-0-0----0--------|-------------1-------------|----------------3--------0--|----------------2----------|-----0----------------0-----|----------2-------------3--|----------------------------|--0------------------------|--3-------------2-----------|-------------0--1----1-----|----------------------------|
--------------------------|--------0-0-0-0-0--3--0--1--|--3--1--------------------|----------------------------|--------------------------|-----0----------0-----------|--------2--------3--2--0--|----------------------------|--0-----------------------|--3-------------2-----------|-----------0--1-----------|----------------------------|
--3--0--------------------|--------0--0--0--0--1--0--|--------1-----------1--3--|--------------------------|-----------------0--------|-----0--------0-----------|--------2-----------------|--------------------------|--0-----------------------|--3-----------2-----------|-----------0--1-----------|--------------------------|
--------------------------|-----------0--3--3--3--0--|--3--1--------------------|--------1-----------------|--------------------------|-----0--------0-----------|--------2--------3--3--0--|--------------------------|--0-----------------------|--3-----------2-----------|-----------0--1-----------|--------------------------|
-----3--3--0--------------|-----------0-----------0--|--1-----------1-----------|--------1-----3-----1-----|--------------------------|-----0-----------0--------|--------------------------|--------------------------|--0-----------------0--2--|--3-----------2-----------|-----------0--1--1--------|--------------------------|
--------------------------|-----0--3--3--3--0-----0--|--------1-----------------|--------------------------|-----2--------------------|--------------------0-----|--------------------------|--------------------------|--0-----------------0--2--|--3-----------2-----------|-----------0--1--1--------|--------------------------|
--3--0--3--0--------------|-----------0-----0--1--0--|--------------1-----------|--------1-----3-----------|--------------------------|-----0--------0-----------|--------------------------|--------------------------|--0--------------0-----0--|--3-----------2-----------|-----------0--1-----1-----|--------------------------|
--------------------------|--------------------------|-----------------------0--1--------------------|--------1-----0--1--0--0--|-------------------1---------------------------|--------------0-----------|--2-------------2------------2--------3--------|-----2-----2--------------|-----2-----------------0-----------------0--2--|--3-----------2-----------|--0-----------------------------0--1-----------|--------------------------|--------0--1---------
--------0-----1--0--------|-------------------------|--------1-----------3--1--|-------------------------|-----0-----0--2-----------|-------0-----0-----------|--------------3--------2--|----2-----2--------------|--3--------------------3--|----------------0--2-----|--------------------------|-------------3--------3--|
-----------3-----1-1-0-----|-----------1--------------|--------1---------------3--|--------1-----1-----------|-----0--------0------------|-----2--------------------|---------------------------|--------------3-----------|--3-----------2------------|--0--------------0--0--2--|----------------------------|----------------------------
--------0-----1--0--------|-------------------------|--------0--0--3--3--0---------1-----------3--1--|-------------------------|---------------------------0-----0--2-----------|-------0-----0-----------|-----0------------------------------3--------2--|----2-----2--------------|------------------------3--------------------3--|----------------0--2-----|--3-----------2---------------------------------|-------------3--------3--|---------------------
--0-0-0-0------------------|--------0-0-0-0----0--------|-------------1-------------|----------------3--------0--|----------------2----------|-----0----------------0-----|----------2-------------3--|----------------------------|--0------------------------|--3-------------2-----------|-------------0--1----1-----|----------------------------|
--------------------------|--------0-0-0-0-0--3--0--1--|--3--1--------------------|----------------------------|--------------------------|-----0----------0-----------|--------2--------3--2--0--|----------------------------|--0-----------------------|--3-------------2-----------|-----------0--1-----------|----------------------------|
--3--0--------------------|--------0--0--0--0--1--0--|--------1-----------1--3--|--------------------------|-----------------0--------|-----0--------0-----------|--------2-----------------|--------------------------|--0-----------------------|--3-----------2-----------|-----------0--1-----------|--------------------------|
--------------------------|-----------0--3--3--3--0--|--3--1--------------------|--------1-----------------|--------------------------|-----0--------0-----------|--------2--------3--3--0--|--------------------------|--0-----------------------|--3-----------2-----------|-----------0--1-----------|--------------------------|
-----3--3--0--------------|-----------0-----------0--|--1-----------1-----------|--------1-----3-----1-----|--------------------------|-----0-----------0--------|--------------------------|--------------------------|--0-----------------0--2--|--3-----------2-----------|-----------0--1--1--------|--------------------------|
--------------------------|-----0--3--3--3--0-----0--|--------1-----------------|--------------------------|-----2--------------------|--------------------0-----|--------------------------|--------------------------|--0-----------------0--2--|--3-----------2-----------|-----------0--1--1--------|--------------------------|
--3--0--3--0--------------|-----------0-----0--1--0--|--------------1-----------|--------1-----3-----------|--------------------------|-----0--------0-----------|--------------------------|--------------------------|--0--------------0-----0--|--3-----------2-----------|-----------0--1-----1-----|--------------------------|
--------------------------|--------------------------|-----------------------0--1--------------------|--------1-----0--1--0--0--|-------------------1---------------------------|--------------0-----------|--2-------------2------------2--------3--------|-----2-----2--------------|-----2-----------------0-----------------0--2--|--3-----------2-----------|--0-----------------------------0--1-----------|--------------------------|--------0--1---------
--------0-----1--0--------|-------------------------|--------1-----------3--1--|-------------------------|-----0-----0--2-----------|-------0-----0-----------|--------------3--------2--|----2-----2--------------|--3--------------------3--|----------------0--2-----|--------------------------|-------------3--------3--|
-----------3-----1-1-0-----|-----------1--------------|--------1---------------3--|--------1-----1-----------|-----0--------0------------|-----2--------------------|---------------------------|--------------3-----------|--3-----------2------------|--0--------------0--0--2--|---------------------------|--------------------------|
--------0-----1--0--------|-------------------------|--------1-----------3--1--|-------------------------|-----0-----0--2-----------|-------0-----0-----------|--------------3--------2--|----2-----2--------------|--3--------------------3--|----------------0--2-----|--------------------------|-------------3--------3--|
----------------------0-----|----------------------0-----|-----1-1-1------1--1--------|-----1-1-1------1--1--------|--0---------2-0-0-----------|--2---------2-0-2-----------|----------------------------|----------------3-----------|--3-------------2--------2--|--0-------------------------|----------------------------|-------------------------3--|
----------------------0-----|----------------------0-----|-----1-1-1------1--1--------|-----1-1-1------1--1--------|--0---------2-0-0-----------|--2---------2-0-2-----------|----------------------------|----------------3-----------|--3-------------2--------2--|--0-------------------------|----------------------------|-------------------------3--|
-----0-0-0--0-0-------0-----|----------------0-----------|----------------3--3--------|-----1-1-1---------1--------|--0-------------0-----------|--2---------2-0-------0-----|----------------------------|----------------3-----------|--3-------------2--------2--|--0-------------------------|----------------------------|-------------------------3--|
-----0-0-0--0-0-3--3--0-----|----------------0-----------|-------------------------3--|-----1-1-1--1-3----1--3--1--|--0-------------0-----------|--2-------------2-----------|----------------------------|----------------3-----------|--3-------------2-----------|--0-------------------------|----------------------------|----------------------------|
--0--1--3--------------------|-------------------------|-----------1-----------0-----|--------1----------1-----|--0-----------0-----0-----0--|-----2----------2-----2--|-----------------------------|-------------------------|--3--------------2-----------|--0----------------------|-----------------------------|-----------1-------------|
--------0-----1--0--------|-------------------------|--------1-----------3--1--|-------------------------|-----0-----0--2-----------|-------0-----0-----------|--------------3--------2--|----2-----2--------------|--3--------------------3--|----------------0--2-----|--------------------------|-------------3--------3--|
--------0-0-0-0-------------|-------------------------|----------------3--0--------|--1--1--1--1-------------|-----0----------------0-----|--2--------2-------------|-------------------------0--|-----------3----3--2--0--|--3-------------2-----------|--0----------------------|----------------------------|-------------------------|
--------0-----1--0--------|----------------------|----||--------1-----------3--1--|----------------------|----||-----0-----0--2-----------|-------0--------------|----||--------------3--------2--|----2-----2-----------|----||--3--------------------3--|-------------3--------|----||--------------------------|----------------------|----||
Tap to rate this tab
 
# A B C D E F G H I J K L M N O P Q R S T U V W X Y Z