Bob Rivers - I Am Santa Claus tab

|----------------------||----------------------||----------------------||---9 Bend up for -----| x 3|---7 two seconds -----||-----then no bend-----|
|-------------------------------||-------------------------------||-------------------------------||----7--7/9-9----9-12-----7/9---||-9--5--5/7-7----7-10--9--5/7---||-7--------------------7--------|
|------------------------------------------||------------------------------------------||------------------------------------------||------------------------------------------| x2|----5--5h7--7--10p9-10p9-10p9--5--5h7--7--||-7----------------------------------------|
|-------------------------------||-------------------------------||-------------------------------||----7--7/9-9----9-12-----7/9---||-9--5--5/7-7----7-10--9--5/7---||-7--------------------7--------|
|------------------------------------------||------------------------------------------||------------------------------------------||------------------------------------------| x2|----5--5h7--7--10p9-10p9-10p9--5--5h7--7--||-7----------------------------------------|
|--------------------------------------------||--------------------------------------------||--------------------------------------------||--------------------------------------------||-----5-------------------------5------------||-7-7---7-6-5-5-5-0h4-5-5-6-7-7---7-6-5-5-5--|
|-------------------------------||-------------------------------||-------------------------------||----7--7/9-9----9-12-----7/9---||-9--5--5/7-7----7-10--9--5/7---||-7--------------------7--------|
|------------------------------------------||------------------------------------------||------------------------------------------||------------------------------------------| x2|----5--5h7--7--10p9-10p9-10p9--5--5h7--7--||-7----------------------------------------|
|-----------------------------\----------------------- \|----------------------------------------------------- \|----------------------------- ----------------------- \|-9~-----------------7~------- ---------------------- \|-7~-----------------5~------- --------------------- \|----------------------------- \________________-- \x2
|
|---------------------------------------------------- ||---------------------------------------------------- ||---------------------------------------------------- ||--------------------7-8-9---------------------7-8-9- ||-9--9------7--7-8-9--------9--9------7--7-8-9------- ||-7--7--7-9-----------------7--7--7-9---------------- |
|-------------------------------------------||-------------------------------------------||-------------------------------------------||-11-9----------------------11-9-7-6~-5-4-2-||------11-10-9-7------------9--7-5-4~-3-2-0-||----------------7-7/9-9--------------------|
|------------------------------------------||------------------------------------------||------------------------------------------||----7--7/9-9--12\11-12\11-12\11--7-7/9-9--||-9--5--5/7-7--10\9--10\9--10\9---5-5/7-7--||-7----------------------------------------|
|------------------------------------------||------------------------------------------||------------------------------------------||------------------------------------------||----5--5h7--7--10\9-10\9-10\9--5--5h7--7--||-7----------------------------------------|
|--------------------------------------------||--------------------------------------------||--------------------------------------------||--------------------------------------------||-----5-------------------------5------------||-7-7---7-6-5-5-5-0h4-5-5-6-7-7---7-6-5-5-5--|
|---------------------------------------------||---------------------------------------------||---------------------------------------------||---------------------------------------------||---------------------------------------------||-0-00000-00000-00000-00000-00000-00000-00000-|
|----------------------||----------------------||----------------------||---9 Bend up for -----| x 2|---7 two seconds -----||-----then no bend-----|
|-----------------------------------||-----------------------------------||-----------------------------------||-9/7-9--7--9/7-9--11-12-11-12-11-7-| x2|-7/5-7--5--7/5-7--9--10-9--10-9--5-||-----------------------------------|
|----------||----------||----------||-9/7-9----||-7/5-7----||----------|
Tap to rate this tab
 
# A B C D E F G H I J K L M N O P Q R S T U V W X Y Z